Guitaretab - guitar tabs
Song name
# A B C D E F G H I J K L M N O P Q R S T U V W X Y Z

Blink 182 - After Midnight tab

Hey! This is my first tab so forgive mistakes. THNKZ

Intro 0:05

e-------          e------|
B-------      or  B------|
G-------          G22-22-|
D-77-77-          D22-22-|
A-77-77-          A00-00-|
D-77-77- X2       D------|

Intro and Verse 0:11
e---------------|
B---------------|
G-999999--66-77-|
D-777777--77-77-|
A-000000--00-00-|
D-000000--------|

Pre Chorus 0:46
e------------|
B-10--10-9-9-|
G-9--9--9-9--| x4
D------------|
A------------|
D------------|


Chorus 1:03
e---------------     e---------------|
B--------333333-     B---------------|
G222222--222222-  or G--------777777-|
D222222--000000-     D777777--777777-|
A000000--000000-     A777777--555555-|
D---------------     D777777---------|

Post Chorus 1:14
e-------          e------|
B-------      or  B------|
G-------          G22-22-|
D-77-77-          D22-22-|
A-77-77-          A00-00-|
D-77-77- X2       D------|


[ Tab from: http://www.guitaretab.com/b/blink-182/291567.html ]
Verse 1:20
e---------------|
B---------------|
G-999999--66-77-|
D-777777--77-77-| x8
A-000000--00-00-|
D-000000--------|

Pre Chorus 1:43
e------------|
B-10--10-9-9-|
G-9--9--9-9--| x4
D------------|
A------------|
D------------|

Chorus 2:00
e---------------     e---------------|
B--------333333-     B---------------|
G222222--222222-  or G--------777777-|
D222222--000000-     D777777--777777-|
A000000--000000-     A777777--555555-|
D---------------     D777777---------|

Bridge 2:34
e----------------------------------------------|
B--------------------------------5--5--5--575--|
G-4/66666/4---4/66666/4/6------66-66-66-66-----|
D0x/xxxxx/x-0-x/xxxxxxxxx-0------------------7-|
A02/44444/2-0-2/44444/2/4-0--------------------|
D000000000-0000000000000000--------------------|

Chorus 2:57
e---------------     e---------------|
B--------333333-     B---------------|
G222222--222222-  or G--------777777-|
D222222--000000-     D777777--777777-|
A000000--000000-     A777777--555555-|
D---------------     D777777---------|


Hope y'all like it!

John
06/03/11
Related for After Midnight tab
After Midnight chords by Blink 182