Guitaretab - guitar tabs
Song name
# A B C D E F G H I J K L M N O P Q R S T U V W X Y Z

Blink 182 - After Midnight tab

Intro

E |--------------------|
B |--------------------|
G |----2-2-----2-2-----|
D |----2-2-----2-2-----|
A |----0-0-----0-0-----|
E |--------------------|

Intro/verse

E |--------------------------------------------------------------------------|
B |--------------------------------------------------------------------------|
G |---9-9-9-9-9-9-9-9-9-6-6-7-7-7-7-7-----9-9-9-9-9-9-9-9-9-7-7-7-7-7-7-7----|
D |---7-7-7-7-7-7-7-7-7-7-7-7-7-7-7-7-----7-7-7-7-7-7-7-7-7-7-7-7-7-7-7-7----|
A |---0-0-0-0-0-0-0-0-0-0-0-0-0-0-0-0-----0-0-0-0-0-0-0-0-0-0-0-0-0-0-0-0----|
E |--------------------------------------------------------------------------|


Prechorus

E |------------------------------------------------|
B |--10-----10----9----------9---------------------|
G |------9------9-----9---9------9-----------------|
D |------------------------------------------------|
A |------------------------------------------------|
E |------------------------------------------------|

Just a bunch of open A notes. Possibly palm muted. Played along with the words tom sings 
starting at "all along we talked of forever..."

Chorus
[ Tab from: http://www.guitaretab.com/b/blink-182/291587.html ]
E |------------------------------------------------|
B |------------------------------------------------|
G |------------------------------------------------|
D |--7--7--7--9/7--7--7--7--7/9/11-----------------|
A |------------------------------------------------|
E |--5--5--5--7/5--5--5--5--5/7/9------------------|

Bridge

E |--------------------------------------------------------------------------|
B |--------------------------------------------------------------------------|
G |--------------------------------------------------------------------------|
D |----7--9--9--11-11-11--9--7------7--9--9--11-11-11--9--11--7--------------|
A |--------------------------------------------------------------------------|
E |--------------------------------------------------------------------------|




E |--------------------------------------------------------------------------|
B |--------------------------------------------------------------------------|
G |----6----------6----------7----------7------------------------------------|
D |-------7-7-7-----7-7-------7-7-7----7-7-7---------------------------------|
A |--------------------------------------------------------------------------|
E |--------------------------------------------------------------------------|



Thanks to littleredguitars2

After Midnight Leason youtube: http://www.youtube.com/watch?v=fNXmLXzE2Ds

After Midnight play youtube: http://www.youtube.com/watch?v=QHLwdBj7Huk&feature=related
Related for After Midnight tab
After Midnight chords by Blink 182