Guitaretab - guitar tabs
Song name
# A B C D E F G H I J K L M N O P Q R S T U V W X Y Z

Blink 182 - After Midnight tab

SONG: After Midnight
ARTIST: Blink 182
AlBUM: Neighborhoods


INTRO (this is also played during the verse)
|-------------------|-------------------|--------------------|---------------|
|-------------------|-------------------|--------------------|---------------|
|-------------------|-------------------|--------------------|---------------|
|--7-7-----7-7------|--7-7------7-7-----|--7-7------7-7------|--7-7------7-7-|
|--7-7-----7-7------|--7-7------7-7-----|--7-7------7-7------|--7-7------7-7-|
|--5-5-----5-5------|--5-5------5-5-----|--5-5------5-5------|--5-5------5-5-|

VERSE x8
|---------------------------|
|---------------------------|
|--9-9-9-9-9-9---6-6-7-7-7--|
|--7-7-7-7-7-7---7-7-7-7-7--|
|---------------------------|
|---------------------------|

[ Tab from: http://www.guitaretab.com/b/blink-182/291603.html ]
PRECHORUS x1
|-----------------------------|------------------------------|
|-----------------------------|------------------------------|
|-----------------------------|------------------------------|
|--7-7-7-7-7--7-7--7--7-7-7-7-|-4-4-4-4-4--4-4---4---4-4-4-4-|
|--7-7-7-7-7--7-7--7--7-7-7-7-|-4-4-4-4-4--4-4---4---4-4-4-4-|
|--5-5-5-5-5--5-5--5--5-5-5-5-|-2-2-2-2-2--2-2---2---2-2-2-2-|
PM * * * * *  * *  *  * * * *   * * * * *  * *   *   * * * *
|------------------------------|
|------------------------------|
|------------------------------|
|--2-2-2-2-2--2-2--2--2-2-2-2--|
|--2-2-2-2-2--2-2--2--2-2-2-2--|  X2
|--0-0-0-0-0--0-0--0--0-0-0-0--|
PM * * * * *  * *  *  * * * *

|-----------------------------|-----------------------------------|
|-----------------------------|-----------------------------------|
|-----------------------------|--7-7-7-7-7-7-7-7-7-7-7-7-7-7-7-7--|
|--7-7-7-7-7--7-7--7--7-7-7-7-|--7-7-7-7-7-7-7-7-7-7-7-7-7-7-7-7--|
|--7-7-7-7-7--7-7--7--7-7-7-7-|--5-5-5-5-5-5-5-5-5-5-5-5-5-5-5-5--|
|--5-5-5-5-5--5-5--5--5-5-5-5-|-----------------------------------|
PM * * * * *  * *  *  * * * *    * * * * * * * * * * *


CHORUS x4 (this is how tom plays it live)
|-------------------------------------|
|-------------------------------------|
|-------------------------------------|
|-07---9----11--0-7---9--11-12--------|
|-0x---x----x---0-x---x--x--x---------|
|-05---7----9---0-5---7--9--10--------|

Note: (you can also play the chorus by strumming these chords)
|-----------------------------------------------|
|-----------------------------------------------|
|-----------------7----------------------9------|
|--7--------------7-(x16)----4-----------9-(x16)|
|--7-(x16)--------5----------4-(x16)-----7------|
|--5-------------------------2------------------|


Bridge: play the chords from the chorus then pick this chord):
|-------|
|--10---|
|--9----|
|--7----|
|-------|
|-------|

End Song on:
|----------|
|----------|
|----------|
|--7-------|
|--7-------|
|--5-------|


SONG ORDER
Intro
Verse
Prechorus
Chorus
intro riff
Verse
Prechorus
Chorusx2
Intro riff
Bridge
Chorusx2
Related for After Midnight tab
After Midnight chords by Blink 182