Guitaretab - guitar tabs
Song name
# A B C D E F G H I J K L M N O P Q R S T U V W X Y Z

Blink 182 - After Midnight tab

-------------------------------------------------------------------------------
			     AFTER MIDNIGHT-BLINK 182
-------------------------------------------------------------------------------
Tabbed by: Billy Agures
Email: billythekiddd6@yahoo.com

Have not seen a correct tab yet, lots of spaces missing in verses, prechoruses and the 
bridge, so here is the full song 100% correct, enjoy:

Tuning: Standard


INTRO:
e|--------------------------------------------|
B|--------------------------------------------|
G|--------------------------------------------|
D|-------7-7----7-7-----7-7-----7-7-----------|
A|-------7-7----7-7-----7-7-----7-7-----------|
E|-------5-5----5-5-----5-5-----5-5-----------|

VERSE:
Guitar 1:
e|----------------------------------------------------------|
B|----------------------------------------------------------|
G|------------------------------7-7----7-7----7-7---7-7-----|
D|---7-7----7-7----7-7---7--7---7-7----7-7----7-7---7-7-----|
A|---7-7----7-7----7-7---7--7---5-5----5-5----5-5---5-5-----|
E|---5-5----5-5----5-5---5--5-------------------------------|

Guitar 2:
e|------------------------------------------------------|
B|------------------------------------------------------|
G|---999999-666h7777------------------------------------|
D|---777777-777-7777------------------------------------|
A|------------------------------------------------------|
E|------------------------------------------------------|

PRECHORUS:
Guitar 1: (PALM MUTED)
e|------------------------------------------------------------------------|
B|------------------------------------------------------------------------|
G|-------------------777-7777-777-777-------------------------------------|
D|-444-4444-444-444--777-7777-777-777--777-7777-777-777--777-7777-777-777-|
A|-444-4444-444-444--555-5555-555-555--777-7777-777-777--777-7777-777-777-|
E|-222-2222-222-222--------------------555-5555-555-555--555-5555-555-555-|
[ Tab from: http://www.guitaretab.com/b/blink-182/291806.html ]
e|-----------------------------------|
B|-----------------------------------|
G|-------------------7777777777777---|
D|-444-4444-444-444--7777777777777---|
A|-444-4444-444-444--5555555555555---|
E|-222-2222-222-222------------------|

Guitar 2:
e|------------------------------------------------------|
B|--10------10-------9-9----9h10-10---------------------|
G|-----9-9-9---9-9-9----9-9-----------------------------|
D|------------------------------------------------------|
A|------------------------------------------------------|
E|------------------------------------------------------|

CHORUS:
e|-------------------------------------------------------------------------|
B|-------------------------------------------------------------------------|
G|--------------------------------------7~---------------------------------|
D|---7~-7-7-7---7/9/11--7-7--7/9/11-----7~---7-7-7---7/9/11--7-7--7/9/11---|
A|---7~-x-x-x---x/x/x---x-x--x/x/x------5~---x-x-x---x/x/x---x-x--x/x/x----|
E|---5~-5-5-5---5/7/9---5-5--5/7/9-----------5-5-5---5/7/9---5-5--5/7/9----|

BRIDGE:
Two guitars I believe, playing this:
e|----------------------------------------------------|
B|----------------------------------------------------|
G|-----4--6-6-6-4-------4---666-4-6-7~----------------|
D|---7--7---------7---7---7---------7~--7~------------|
A|----------------------------------5~----------------|
E|----------------------------------------------------|

e|----------------------------------------------------------|
B|----------------------------------------------------------|
G|----6-9--6-9--6-9-6-9--9-9----6-7--6-7----7--7---7--7--77-|
D|---7---7----7----7---7------7----7-----77--77-77--77-77---|
A|----------------------------------------------------------|
E|----------------------------------------------------------|


e|----------------------------------------------------------|
B|----------------------------------------------------------|
G|----6-9--6-9--6-9-6-9--9-9----6-7--6-7----7--7---7--7--77-|
D|---7---7----7----7---7------7----7-----77--77-77--77-77---|
A|----------------------------------------------------------|
E|----------------------------------------------------------|

Repeat the Chorus and that's it! Enjoy.
Related for After Midnight tab
After Midnight chords by Blink 182