Guitaretab - guitar tabs
Song name
# A B C D E F G H I J K L M N O P Q R S T U V W X Y Z

Blink 182 - After Midnight tab

Blink 182 After Midnight

Tuning Standard
Im tabbing this from the actual recorded song that they released a few days ago 
but I doubt it's anything to brag about so you'll have to tweak a few things yourself.
Intro

E|-------------------|Then he plays D5 at one point instead of the A5, so: e|---|
B|-------------------|							   b|---|
G|-2-2---2-2---------|                                                     g|-7-|
D|-2-2---2-2---------|                                                     d|-7-|
A|-0-0---0-0---------|                                                     a|-5-|
e|-------------------|                                                     e|---|

E|------------------------------------------------------------|
B|------------------------------------------------------------|
G|-9--9-9-9-9-9-9-6-6-7-7--9--9-9-9-9-9-9-9-7-7-7-7-----------|
D|-7--7-7-7-7-7-7-7-7-7-7--7--7-7-7-7-7-7-7-7-7-7-7-----------|
A|------------------------------------------------------------|
e|------------------------------------------------------------|

^Second part is also the verse

Pre Chorus

E|-----------------------|
B|-10---10---9---9--10~--|
G|---9----9---9---9------|Repeat this as much as needed
D|----7----7---7------~--|
A|-----------------------|
e|-----------------------|

Chorus
[ Tab from: http://www.guitaretab.com/b/blink-182/292244.html ]
E|-----------------------------------------------------------------|
B|-----------------------------------------------------------------|
G|-2---6p0p6p0-2--2-2-2-2------------------------------------------|
D|-2---6p0p6p0-2--2-2-2-2-7/9/11-----------------------------------|
A|-0---4p0p4p0-0--0-0-0-0-x/x/-x-----------------------------------|
e|------------------------5/7/-9-----------------------------------|

Repeat as much as needed, but on last time do not play the 7/9/11 part just keep 
playing the A5 chords (xx220x)

Interlude

E|------------------------------------------|
B|-10-9-------------------------------------|
G|--9-7-6-6-6-6-4------6--6-6-6-6-4-6---2~~-|
D|------7-7-7-7-6-7~--7-7-7-7-7-7-6-7-------|
A|------------------------------------------|
e|------------------------------------------|

E|-------------------------------------------------------------------------|
B|-----5------5-----5-----5-----5------------------------------------------|
G|-4h6----4h6---4h6---4h6---4h6-----------2-----2-----2-----2-----2-----2--|
D|--------------------------------------4-----4-----4-----4-----4-----4----|
A|------------------------------------0-----0-----0-----0-----0-----0------|
e|-------------------------------------------------------------------------|

Repeat as much as needed, play chorus, end song.
Related for After Midnight tab
After Midnight chords by Blink 182