Song name
# A B C D E F G H I J K L M N O P Q R S T U V W X Y Z

Blink 182 - Wishing Well tab

-------------------------------------------------------------------------------
			     WISHING WELL - Blink-182
-------------------------------------------------------------------------------
Tabbed by: gateway01

Tuning: Standard

Pretty sure that this is the first ENGLISH tab, all the others were en espanol. As far 
as I know, this is the first correct tab also. Comment with any corrections/questions/etc.


Intro:
Guitar 1
e|-------------------------------------------|
B|-------------------------------------------|
G|-101010-9--95-555555555555555xx555555------|
D|-x-x-x--x--xx-xxxxxxxxxxxxxxxxxxxxxxx------|\
A|-8-8-8--7--73-333333333333333xx333333------| \
E|-------------------------------------------|  \
                                                 x2
Guitar 2                                        /
e|-------------------------------------------| /
B|-------------------------------------------|/
G|-101010-9--95-555555555555555xx777777------|
D|-x-x-x--x--xx-xxxxxxxxxxxxxxxxxxxxxxx------|
A|-8-8-8--7--73-333333333333333xx555555------|
E|-------------------------------------------|


Verse: (Scratching patterns change throughout verse.)

0:10 "It's been a really long time..."
e|-------------------------------------------|
B|-------------------------------------------|
G|-101010-9--95-555555555555555xx555555------|
D|-x-x-x--x--xx-xxxxxxxxxxxxxxxxxxxxxxx------|
A|-8-8-8--7--73-333333333333333xx333333------|
E|-------------------------------------------| x6


Pre-Chorus: 0:39 "La da dut dut, la da dut dah..."

e|-------------------------------------------|
B|-------------------------------------------|
G|-8--------9---------5--------7-------------|
D|-9--------9---------5--------7-------------|
A|-6--------7---------3--------5-------------|
E|-------------------------------------------|


Chorus: 0:50
"I went to a wishing well, it sunk to the ocean floor..."
Guitar 1
e|--------------------------------------------------------------------|
B|--------------------------------------------------------------------|
G|--55555555555555557777777777777777----------------------------------|
D|--5555555555555555777777777777777777777777777777773333333333333333--|
A|--3333333333333333555555555555555577777777777777773333333333333333--|
E|----------------------------------55555555555555551111111111111111--|

Guitar 2
e|--------------------------------------------------------------------|
B|--------------------------------------------------------------------|
G|-5555xx5555xx55xx5555xx5555xx55xx5555xx5555xx55xx5555xx5555xx55xx---|
D|-xxxxxxxxxxxxxxxxxxxxxxxxxxxxxxxxxxxxxxxxxxxxxxxxxxxxxxxxxxxxxxxx---|
A|-3333xx3333xx33xx3333xx3333xx33xx3333xx3333xx33xx3333xx3333xx33xx---|
E|--------------------------------------------------------------------|

[Repeat Intro]

(Guitar DOESN'T PLAY VERSE 2)

[Repeat Pre-Chorus]

[Repeat Chorus]

Bridge: 2:09

e|----------------------------------------------------------------------|
B|----------------------------------------------------------------------|
G|-5--------------------------------------------------------------------|
D|-x---[continuously plays, slowly crescendos.]-------------------------|
A|-3--------------------------------------------------------------------|
E|----------------------------------------------------------------------|

[Repeat Pre-Chorus]

[Repeat Chorus x2]

Outro:

e|-------------------------------|
B|-------------------------------|
G|-1010109-95-5-5-55xx5555-------|
D|-x-x-x-x-xx-x-x-xxxxxxxx-------|
A|-8-8-8-7-73-3-3-33xx3333-------|
E|-------------------------------|
Tap to rate this tab
 
# A B C D E F G H I J K L M N O P Q R S T U V W X Y Z