Song name
# A B C D E F G H I J K L M N O P Q R S T U V W X Y Z

Blink 182 - Wishing Well tab

First tab, this is the way i play because i think its sounds better than others!

Standard Tuning - No capo

x = muted strum

Intro riff-
e|--------------------------------------------------------------|
B|--------------------------------------------------------------|
G|--------------------------------------------------------------|
D|-15-15-141414-10-101010-10-1010-x-1010-10-1010-x-1010-10-1010-|
A|-12-12-121212-8--8 8 8- 8- 8 8 -x--------------x--------------|
E|--------------------------------x-8 8- 8- 8 8- x-1010-10-1010-|

Pre Chorus (ladadada dadada da)-
e|--------------------------------------------------------------|
B|--------------------------------------------------------------|
G|--------------------------------------------------------------|
D|---10---10------10---10---------------------------------------|
A|---7----8-----------------------------------------------------|
E|----------------8 ---10---------------------------------------|

Chorus (I went to a wishing well..)
Guitar 1
e|----------------|--------------|--------------|---------------|
B|----------------|--------------|--------------|---------------|
G|--5-------------|--------------|2-------------|---------------|
D|--5-------------|5-------------|2-------------|3--------------|
A|--3-------------|5-------------|0-------------|3--------------|
E|----------------|3-------------|--------------|1--------------|
Guitar 2 (this also plays over towards end of bridge, and last pre chorus)
e|----------------|--------------|--------------|---------------|
B|----------------|--------------|--------------|---------------|
G|--555xx555xx55xx|555xx555xx55xx|555xx555xx55xx|555xx555xx55---|
D|----------------|--------------|--------------|---------------|
A|--333xx333xx33xx|333xx333xx33xx|333xx333xx33xx|333xx333xx33---|
E|----------------|--------------|--------------|---------------|


INTRO RIFF x8
PRE CHORUS x2
CHORUS x2 (guitar 2 riff plays over)
INTRO RIFF x2 (x6 if playing acoustic)
PRE CHORUS x2
CHORUS x2 (guitar 2 riff plays over)
BRIDGE (guitar 2 riff plays over towards the end)
PRE CHORUS x2 (guitar 2 riff plays over)
CHORUS x4
INTRO RIFF x1
Tap to rate this tab
# A B C D E F G H I J K L M N O P Q R S T U V W X Y Z