Song name
# A B C D E F G H I J K L M N O P Q R S T U V W X Y Z

Blink-182 - Kaleidoscope tab

-----------------------------------------------------------------------------
			     Kaleidoscope  Blink-182
-----------------------------------------------------------------------------

Like the tabs up for this song already are super lame so I thought Id do one.. Drop D 
tuning. Safe.

Intro/1st verse 0:00

Guitar 1
e|--------------------------------------------------------------------------|
B|--------------------------------------------------------------------------|
G|----------77777777--------------------------------------------------------|
D|12-11-9-7-77777777--12-11-9-7-55555555------------------------------------|
A|9--9--9-7-55555555--9--9--9-7-55555555------------------------------------|
D|9--9--9-7-55555555--9--9--9-7-55555555------------------------------------|

Guitar 2 (0:10)
e|--------------------------------------------------------------------------|
B|--------------------7-------------------------7---------------------------|
G|--7----------7-----------7------------7-----------------------------------|
D|-------0-----------------------0------------------------------------------|
A|--------------------------------------------------------------------------|
D|--------------------------------------------------------------------------|


Then little instrumental bit 0:20

Guitar 1
e|--------------------------------------------------------------------------|
B|-3---2---3---2------------------------------------------------------------|
G|-2---2---4---2------------------------------------------------------------|
D|-0---2---4---2------------------------------------------------------------|
A|-0---0---2---0------------------------------------------------------------|
D|-0------------------------------------------------------------------------|


Verse 0:31

Guitar 1
e|--------------------------------------------------------------------------|
B|--------------------------------------------------------------------------|
G|----------77777777--------------------------------------------------------|
D|12-11-9-7-77777777--12-11-9-7-55555555------------------------------------|
A|9--9--9-7-55555555--9--9--9-7-55555555------------------------------------|
D|9--9--9-7-55555555--9--9--9-7-55555555------------------------------------|

Guitar 2 (0:38) (listen to work out strumming/picking pattern)
e|--------------------------------------------------------------------------|
B|-7---8--------------------------------------------------------------------|
G|-7---7--------------------------------------------------------------------|
D|-0---0--------------------------------------------------------------------|
A|--------------------------------------------------------------------------|
D|--------------------------------------------------------------------------|


Pre chorus 0:48

Guitar 1
e|--------------------------------------------------------------------------|
B|--------------------------------------------------------------------------|
G|--------------------------------------------------------------------------|
D|-5555555555555555---------------------------------------------------------|
A|-5555555555555555---------------------------------------------------------|
D|-5555555555555555---------------------------------------------------------|

Guitar 2
e|--------------------------------------------------------------------------|
B|--------------------------------------------------------------------------|
G|-9\7-777777---9\7-777777--------------------------------------------------|
D|-x-x-xxxxxx---x-x-xxxxxx--------------------------------------------------|
A|-7\5-555555---7\5-555555--------------------------------------------------|
D|--------------------------------------------------------------------------|


Chorus 0:50

Guitar 1
e|--------------------------------------------------------------------------|
B|--------------------------------------------------------------------------|
G|--------------------------------------------------------------------------|
D|-000000-77--000000-7-0-44444444-55555555----------------------------------|
A|-000000-77--000000-7-0-44444444-55555555----------------------------------|
D|-000000-77--000000-7-0-44444444-55555555----------------------------------|


Verse 1:06

Guitar 1
e|--------------------------------------------------------------------------|
B|--------------------------------------------------------------------------|
G|----------77777777--------------------------------------------------------|
D|12-11-9-7-77777777--12-11-9-7-55555555------------------------------------|
A|9--9--9-7-55555555--9--9--9-7-55555555------------------------------------|
D|9--9--9-7-55555555--9--9--9-7-55555555------------------------------------|

Guitar 2 (variations of this basic pattern)
e|--------------------------------------------------------------------------|
B|----------77777777--------------------------------------------------------|
G|--7-7-7-7-77777777--------------------------------------------------------|
D|-7-7-7-7--77777777--------------------------------------------------------|
A|--------------------------------------------------------------------------|
D|--------------------------------------------------------------------------|


Pre chorus bit? 1:27

Guitar 1
e|--------------------------------------------------------------------------|
B|-3---2---3---2------------------------------------------------------------|
G|-2---2---4---2------------------------------------------------------------|
D|-0---2---4---2---5555555555555555-----------------------------------------|
A|-0---0---2---0---5555555555555555-----------------------------------------|
D|-0---------------5555555555555555-----------------------------------------|

Guitar 2
e|--------------------------------------------------------------------------|
B|--------------------------------------------------------------------------|
G|-----------------9\7-777777---9\7-777777----------------------------------|
D|-----------------x-x-xxxxxx---x-x-xxxxxx----------------------------------|
A|-----------------7\5-555555---7\5-555555----------------------------------|
D|--------------------------------------------------------------------------|


Chorus 1:40

Guitar 1
e|--------------------------------------------------------------------------|
B|--------------------------------------------------------------------------|
G|--------------------------------------------------------------------------|
D|-000000-77--000000-7-0-44444444-55555555----------------------------------|
A|-000000-77--000000-7-0-44444444-55555555----------------------------------|
D|-000000-77--000000-7-0-44444444-55555555----------------------------------|


Interlude 2:02
Strummed (listen for pattern)

e|--------------------------------------------------------------------------|
B|-3-----3------------------------------------------------------------------|
G|-2--7--2------------------------------------------------------------------|
D|-0--7--0--2---------------------------------------------------------------|
A|-0--5--0--2---------------------------------------------------------------|
D|-0--5--0--2---------------------------------------------------------------|


Then the heavier bit 2:23

e|--------------------------------------------------------------------------|
B|--------------------------------------------------------------------------|
G|--------------------------------------------------------------------------|
D|-0--------5--------0--------2---------------------------------------------|
A|-0-x 16---5-x 16---0-x 16---2-x 16----------------------------------------|
D|-0--------5--------0--------2---------------------------------------------|


Chorus 2:49

Guitar 1
e|--------------------------------------------------------------------------|
B|--------------------------------------------------------------------------|
G|--------------------------------------------------------------------------|
D|-000000-77--000000-7-0-44444444-55555555----------------------------------|
A|-000000-77--000000-7-0-44444444-55555555----------------------------------|
D|-000000-77--000000-7-0-44444444-55555555----------------------------------|

Guitar 2
e|--------------------------------------------------------------------------|
B|-----------------------7-8-10--7-8-10----7--------------------------------|
G|--------------------------------------------------------------------------|
D|--------------------------------------------------------------------------|
A|--------------------------------------------------------------------------|
D|--------------------------------------------------------------------------|

Guitar 1
e|--------------------------------------------------------------------------|
B|--------------------------------------------------------------------------|
G|--------------------------------------------------------------------------|
D|-000000-77--000000-7-0-44444444-55555555----------------------------------|
A|-000000-77--000000-7-0-44444444-55555555----------------------------------|
D|-000000-77--000000-7-0-44444444-55555555----------------------------------|

Guitar 2
e|--------------------------------------------------------------------------|
B|-----------------------7-5-----7-5------7---------------------------------|
G|---------------------------7-------7--------------------------------------|
D|--------------------------------------------------------------------------|
A|--------------------------------------------------------------------------|
D|--------------------------------------------------------------------------|
Tap to rate this tab
# A B C D E F G H I J K L M N O P Q R S T U V W X Y Z