Song name
# A B C D E F G H I J K L M N O P Q R S T U V W X Y Z

Blink 182 - Ghost On The Dancefloor tab

Right, i just taught myself this about 5 minutes ago
May not be 100% correct, but i think it sounds good.

Intro:
e-----------------------------------------------|
B-----------------------------------------------|
G--8--------------------------------------------|
D--9-9-9-9-9-9-9-9-999--------------------------|
A--x-x-x-x-x-x-x-x-xxx--------------------------|
E--7-7-7-7-7-7-7-7-777--------------------------|

-------------------------------------------------|
-------------------------------------------------|
-------------------------------------------------|
---11-(-9----)-----------------------------------|
---x----x--x9------------------------------------|
---7--(-7----)-----------------------------------|

Verses:

-----------------------------------------------|
-----------------------------------------------|
---9------8------------------------------------|
---x-x5---x--x8--------------------------------| x16
---7------6------------------------------------|
-----------------------------------------------|

Chorus:
-----------------------------------------------|
-----------------------------------------------|
-----------------------------------------------|
---9~-------2~-------4~------------------------|
---9~-------2~-------4~------------------------| x2
---7~-------0~-------2~------------------------|


That's all i got so far, sorry guys, gotta be patient haha x
Tap to rate this tab
# A B C D E F G H I J K L M N O P Q R S T U V W X Y Z