Song name
# A B C D E F G H I J K L M N O P Q R S T U V W X Y Z

Blink 182 - Ghosts On The Dance Floor tab

PS: ~ hamer on
    s slide



Intro

E |---------------------------------------------------|
B |---------------------------------------------------|
G |---------------------------------------------------|
D |1--------------------------------------------------|
A |-22--222--1~2422--222--1~2422--222--1~2422--22-1~2-|
E |---------------------------------------------------|

   Then repeat four times and finish at

E |-------------|
B |-------------|
G |-------------|
D |-------------|
A |-2-----------|
E |-------------|




   Verse
  "I'll never let you down boy..."

E |-----------------|
B |-----------------|
G |--11-9-8--9-8-9--|
D |--9--9-9--9-9-9--|
A |-----------------|
E |-----------------|

  Repeat 8 times till chorus




   Chorus
  "Yeah I, I felt your ghost tonight..."

E |------------------|
B |------------------|
G |------------------|
D |--11-9-9--11-9-8--|
A |--9--9-9--9--9-9--|
E |------------------|




Intro
Verse
Chorus




   Bridge (3:04)

E |-----------------|
B |-----------------|
G |-----------------|
D |-----------------|
A |--9999--4s8-8s9--|
E |--7777--2s6-6s7--|

   Repeat four times

E |-------------------------------------------|
B |--4----4----4----4----2----2----2----2-----|
G |---4-4--4-4--4-4--4-4--4-4--4-4--4-4--4-4--|
D |-------------------------------------------|
A |-------------------------------------------|
E |-------------------------------------------|




Chorus



END...!
Brazil!!!
@KamilaNog
Tap to rate this tab
# A B C D E F G H I J K L M N O P Q R S T U V W X Y Z