Song name
# A B C D E F G H I J K L M N O P Q R S T U V W X Y Z

Blink 182 - Ghost On The Dance Floor tab

Hi Guys, First tab here but worth a go. Might not be 100% but should get you through the 
song well enough.


Intro

e|--------------------------------------------------|
B|--------------------------------------------------|
G|--------------------------------------------------|
D|----------------------------------2---------------|
A|3333-3333--5333-3333--5333-33332---333-33332------|
E|--------------------------------------------------|

											X3
e|--------------------------------------------------|
B|--------------------------------------------------|
G|--------------------------------------------------|
D|-2------------------------------------------------|
A|--333--33325--------------------------------------|
E|--------------------------------------------------|




Verse

e|--------------------------------------------------|
B|13-13--13-13--13--13-13--13-13--13----------------|
G|12-12--10-10---9--10-10---9--9--10----------------|
D|10-10--10-10--10--10-10--10-10--13----------------|   X8
A|--------------------------------------------------|
E|--------------------------------------------------|


Chorus Guit 1.


e|--------------------------------------------------|
B|13-13--13-13--13--13-13--13-13--13----------------|
G|12-12--10-10--10---9--9---9--9--10----------------|
D|10-10--10-10--10--10-10--10-10--13----------------| X4
A|--------------------------------------------------|
E|--------------------------------------------------|


Chorus Guit 2.

e|--------------------------------------------------|
B|--------------------------------------------------|
G|--------------------------------------------------|
D|---------------10-----------------10--------------|
A|-10-------------7------------------8--------------|
E|--8-----------------------------------------------|
     I            saw		                   	tonight


e|--------------------------------------------------|
B|--------------------------------------------------|
G|--------------------------------------------------|
D|----------------------------------10--------------|
A|-----5-------------10--------------7--------------|
E|-----3--------------8-----------------------------|
     moment          real           eyes


e|--------------------------------------------------|
B|--------------------------------------------------|
G|--------------------------------------------------|
D|---10---------------------------------------------|
A|----8---------------5-------------10--------------|
E|--------------------3--------------8--------------|
      mine           wounds          heal





Thats about it. You can work out the exact strumming patterns from the song. If you want 
to embellish the chorus a bi then the chord sequence is:

C-F-G

For the Verses it's:

C-F-G  (you could throw in an Am if you wanted)


All in all blink-182 back to playing glorious 3 chord punk but with a much more 
interesting twist. Enjoy.
Tap to rate this tab
 
# A B C D E F G H I J K L M N O P Q R S T U V W X Y Z