Song name
# A B C D E F G H I J K L M N O P Q R S T U V W X Y Z

Blink 182 - Kaleidoscope tab

Intro
E| -------------------------------------------------|
B| -------------------------------------------------|
G| -------------------------------------------------|
D| -12--11---9---7---5-5-5-5-5-5--------------------|
A| --9---9---9---7---5-5-5-5-5-5--------------------|
D| --9---9---9---7---5-5-5-5-5-5--------------------|

E| -------------------------------------------------|
B| -------------------------------------------------|
G| --7-----9-----7-----9----------------------------|
D| --7-----7-----5-----7----------------------------|
A| --5-----7-----5-----7----------------------------|
D| -------------------------------------------------|

Verse
E| -------------------------------------------------|
B| -------------------------------------------------|
G| -------------------------------------------------|
D| -12--11---9---7---5-5-5-5-5-5--------------------|
A| --9---9---9---7---5-5-5-5-5-5--------------------|
D| --9---9---9---7---5-5-5-5-5-5--------------------|

2nd
E| --------------------------------------------------------------------------------|
B| --------------------------------------------------------------------------------|
G| --7-7-7-7-7-7-7-7-7-11-11-11-11-11-11-11-11-----9-7-7-7-7-7-7-7-9-7-7-7-7-7-7-7-|
D| ---------------------------------------------x4---------------------------------|
A| --5-5-5-5-5-5-5-5-5--9--9--9--9--9--9--9--9-----7-5-5-5-5-5-5-5-7-5-5-5-5-5-5-5-|
D| --------------------------------------------------------------------------------|

Chorus
E| ---------------------------------------------------------|
B| ---------------------------------------------------------|
G| ---------------------------------------------------------|
D| -0-0-0-0-0-7-0-0-0-0-0-7-4-4-4-4-4-4-4-4-5-5-5-5-5-5-5-5-|
A| -0-0-0-0-0-7-0-0-0-0-0-7-4-4-4-4-4-4-4-4-5-5-5-5-5-5-5-5-|
D| -0-0-0-0-0-7-0-0-0-0-0-7-4-4-4-4-4-4-4-4-5-5-5-5-5-5-5-5-|

2nd
E| ---------------------------------------------------------|
B| ---------------------------------------------------------|
G| -------------------------11-12-14-----11-9-7-------------|
D| ---------------------------------------------------------|
A| --------------------------9-10-12------9-7-5-------------|
D| ---------------------------------------------------------|
 
Chorus

E| -------------------------------------------------|
B| -------------------------------------------------|
G| --7-----9-----7-----9----------------------------|
D| --7-----7-----7-----7----------------------------|X1
A| --5-----7-----5-----7----------------------------|
D| -------------------------------------------------|

E| ---------------------------------------------------------|
B| ---------------------------------------------------------|
G| ---------------------------------------------------------|
D| -5-5-5-5-5-5-5-5-5-5-5-5-5-5-5-5-0-0-0-0-0-7-0-0-0-0-0-7-|X1
A| -5-5-5-5-5-5-5-5-5-5-5-5-5-5-5-5-0-0-0-0-0-7-0-0-0-0-0-7-|
D| -5-5-5-5-5-5-5-5-5-5-5-5-5-5-5-5-0-0-0-0-0-7-0-0-0-0-0-7-|

E| ---------------------------------------------------------|
B| ---------------------------------------------------------|
G| ---------------------------------------------------------|
D| -4-4-4-4-4-4-4-4-5-5-5-5-5-5-5-5-0-0-0-0-0-7-0-0-0-0-0-7-| X3
A| -4-4-4-4-4-4-4-4-5-5-5-5-5-5-5-5-0-0-0-0-0-7-0-0-0-0-0-7-|
D| -4-4-4-4-4-4-4-4-5-5-5-5-5-5-5-5-0-0-0-0-0-7-0-0-0-0-0-7-|


E| -------------------------------------|
B| -------------------------------------|
G| ---------------------------------7---|
D| -4-4-4-4-4-4-4-4-5-5-5-5-5-5-5-5-7---| 
A| -4-4-4-4-4-4-4-4-5-5-5-5-5-5-5-5-5---|
D| -4-4-4-4-4-4-4-4-5-5-5-5-5-5-5-5-----|

Bridge
E| -----------------------------------------------------------------|
B| -----------------------------------------------------------------|
G| -----------------------------------------------------------------|
D| -0-0-0-0-0-0-0-0-5-5-5-5-5-5-5-5-0-0-0-0-0-0-0-0-2-2-2-2-2-2-2-2-|
A| -0-0-0-0-0-0-0-0-5-5-5-5-5-5-5-5-0-0-0-0-0-0-0-0-2-2-2-2-2-2-2-2-|
D| -0-0-0-0-0-0-0-0-5-5-5-5-5-5-5-5-0-0-0-0-0-0-0-0-2-2-2-2-2-2-2-2-|

2nd
E| -----------------------------------------------------------------|
B| -----------------------------------------------------------------|
G| --7-9-11-9-11-9-12-12-14-14------7-9-11-9-11-7-7-7-7-7-7---------|
D| -----------------------------------------------------------------|
A| --5-7--9-7--9-7-10-10-12-12------5-7--9-7--9-5-5-5-5-5-5---------|
D| -----------------------------------------------------------------|


Chorus
E| ---------------------------------------------------------|
B| ---------------------------------------------------------|
G| ---------------------------------------------------------|
D| -0-0-0-0-0-7-0-0-0-0-0-7-4-4-4-4-4-4-4-4-5-5-5-5-5-5-5-5-|
A| -0-0-0-0-0-7-0-0-0-0-0-7-4-4-4-4-4-4-4-4-5-5-5-5-5-5-5-5-|
D| -0-0-0-0-0-7-0-0-0-0-0-7-4-4-4-4-4-4-4-4-5-5-5-5-5-5-5-5-|

2nd
E| ---------------------------------------------------------|
B| ---------------------------------------------------------|
G| -------------------------11-12-14-----11-9-7-------------|
D| ---------------------------------------------------------|
A| --------------------------9-10-12------9-7-5-------------|
D| ---------------------------------------------------------|
Tap to rate this tab
# A B C D E F G H I J K L M N O P Q R S T U V W X Y Z