Song name
# A B C D E F G H I J K L M N O P Q R S T U V W X Y Z

Blink 182 - Love Is Dangerous tab

-------------------------------------------------------------------------------
			     Love Is Dangerous - blink-182
-------------------------------------------------------------------------------
Tabbed by: Andy Wareing

Tuning:Standard

Intro:
e|-----------------------------------------------------------------------------|
B|-----------------------------------------------------------------------------|
G|-----------------------------------------------------------------------------|
D|-------4-2-0----4p2-0----0---------------------7---7----5-4------------------|
A|---2-2--------2--------2-----------------------------------------------------|
E|-------------------------------3-3-3-3-3-3-3-3---33---33---------------------|

e|-----------------------------------------------------------------------------|
B|-----------------------------------------------------------------------------|
G|-----------------------------------------------------------------------------|
D|-------4-2-0----4p2-0--------------------------7-----7----5-4----------------|
A|---2-2--------2--------------------------------------------------------------|
E|------------------------0-2-3-----3-3-3-3-3-3-3----33---33-------------------|

Verse:
e|-----------------------------------------------------------------------------|
B|-----------------------------------------------------------------------------|
G|-----7-7-7-7-6/7-7-7-7-------------------------------------------------------|
D|-----x-x-x-x-x/x-x-x-x-------------------------------------------------------|
A|-----5-5-5-5-4/5-5-5-5-------------------------------------------------------|
E|-----------------------------------------------------------------------------|

Pre-Chorus:
e|-----------------------------------------------------------------------------|
B|-----------------------------------------------------------------------------|
G|-----------------------------------------------------------------------------|
D|----5-5-5-5-5-5-5-5----------------------------------------------------------|
A|----5-5-5-5-5-5-5-5----------------------------------------------------------|
E|----3-3-3-3-3-3-3-3----------------------------------------------------------|
          x  x  x  x  x  x  x  x

Chorus:
e|------------------------------------------------------------------------------|
B|------------------------------------------------------------------------------|
G|-------------77777------------------------------------------------------------|
D|---99999----77777----55555----------------------------------------------------|
A|---99999----55555----55555----------------------------------------------------|
E|---77777--------------33333---------------------------------------------------|

e|------------------------------------------------------------------------------|
B|------------------------------------------------------------------------------|
G|-------------77777------------------------------------------------------------|
D|---99999----77777----5--------------------------------------------------------|
A|---99999----55555----5--------------------------------------------------------|
E|---77777--------------3-------------------------------------------------------|


Intro

Verse

Pre-Chorus

Chorus

Bridge:
e|---------------------------------------------------------------------------|
B|---------------------------------------------------------------------------|
G|-----7~--------------------------------------------------------------------|
D|-----7~--------------------------------------------------------------------|
A|-----5~--------------------------------------------------------------------|
E|---------------------------------------------------------------------------|

e|-----------------------------------------------------------------------------|
B|-----------------------------------------------------------------------------|
G|---11-11-9\777777---11-11-9\777777-------------------------------------------|
D|---x--x--x\xxxxxx----x--x--x\xxxxxx------------------------------------------|
A|---9--9--7\555555----9--9--7\555555------------------------------------------|
E|-----------------------------------------------------------------------------|

e|-----------------------------------------------------------------------------|
B|-----------------------------------------------------------------------------|
G|---9--9--9\777777----9--9--9\777777------------------------------------------|
D|---x--x--x\xxxxxx----x--x--x\xxxxxx------------------------------------------|
A|---7--7--7\555555----7--7--7\555555------------------------------------------|
E|-----------------------------------------------------------------------------|

e|------------------------------------------------------------------------------|
B|------------------------------------------------------------------------------|
G|---14--14--9/111111----14--14--9/111111----9-9-9-9-9-9--7-7-7-7-7-7-7---------|
D|---x---x---x/xxxxxx-----x---x---x/xxxxxx----x-x-x-x-x-x--x-x-x-x-x-x-x--------|
A|---12--12--7/999999----12--12--7/999999----7-7-7-7-7-7--5-5-5-5-5-5-5---------|
E|------------------------------------------------------------------------------|

Chorus

Ending:
e|---------------------------------------------------------------------------|
B|---------------------------------------------------------------------------|
G|----------7~---------------------------------------------------------------|
D|----9~----7~---5~----------------------------------------------------------|  x2
A|----9~----5~---5~----------------------------------------------------------|
E|----7~---------3~----------------------------------------------------------|

e|---------------------------------------------------------------------------|
B|---------------------------------------------------------------------------|
G|---------------------------------------------------------------------------|
D|---------------------------------------------------------------------------|  x4
A|----5----5-----------------------------------------------------------------|
E|---3----3----3-------------------------------------------------------------|

************************************

| /   slide up
| \   slide down
| h   hammer-on
| p   pull-off
| ~   vibrato
| +   harmonic
| x   Mute note
| b   Bend
| pb  Pre-bend
| br  Bend release
| pbr Pre-bend release
| brb Bend release bend

************************************
Tap to rate this tab
 
# A B C D E F G H I J K L M N O P Q R S T U V W X Y Z