Song name
# A B C D E F G H I J K L M N O P Q R S T U V W X Y Z

Blink 182 - I Miss You tab

#----------------------------------PLEASE NOTE--------------------------------#
#This file is the author's own work and represents their interpretation of the#
#song. You may only use this file for private study, scholarship, or research.#
#-----------------------------------------------------------------------------#
#-- File created with Instab - http://www.pconline.com/~smcarey/instab.html --#
#-----------------------------------------------------------------------------#

Author/Artist: Blink 182
Title: I Miss You
/ slide up

Standard Tuning

-----|-----------------------|--|----------------------|----------------------|
-----|-----------------------|--|----------------------|----------------------|
-----|-----------------------|--|----------------------|----------------------|
-----|-9--9-9/13-13-13--13---|3x|-9--9-9/13-13-13--9---|----------------------|
-----|-x--x-x----x--x---x----|--|-x--x-x----x--x---x---|----------------------|
-----|-7--7-7/11-11-11--11---|--|-7--7-7/11-11-11--7---|----------------------|
      Intro/Verse

-----|--------------------------------|-|-------------------------------------|
-----|--------------------------------|-|-------------------------------------|
-----|-4---6---8---11---9---11---13---|-|-------------------------------------|
-----|--------------------------------|-|-------------------------------------|
-----|-2---4---6---9----7---9----11---|-|-------------------------------------|
-----|--------------------------------|-|-7-----------------------------------|
       Interlude Pick Throughout (B Esus2)

-----|----------------------------|--|----------------------------------------|
-----|----------------------------|--|----------------------------------------|
-----|-4---6---8---11---9-----4---|--|----------------------------------------|
-----|----------------------------|--|----------------------------------------|
-----|-2---4---6---9----7-----2---|--|----------------------------------------|
-----|----------------------------|--|-7--------------------------------------|
       Bridge Pick Throughout

-|----------------|--|-------------------------------------------------------|
-|----------------|--|-------------------------------------------------------|
-|-11--11--11--11-|--|-11--8--11--8--11--8--11--8--11--8--11--9--11--9--8--4-|
-|----------------|--|-------------------------------------------------------|
-|----------------|--|-------------------------------------------------------|
-|----------------|--|-------------------------------------------------------|
   Piano Outro
Tap to rate this tab
# A B C D E F G H I J K L M N O P Q R S T U V W X Y Z