Song name
# A B C D E F G H I J K L M N O P Q R S T U V W X Y Z

Blink 182 - Just About Done tab

Song:Just About Done
Album:Chesire Cat
Artist:blink-182
Song:Just about Done
                       intro
e|12b~--------------------------------------------------------|
b|------------------------------------------------------------|
g|--------------5b-----------3b------------5b------------3b---|
d|------22-24-5---54-22-24-5----54-22-24-5----54-22-24-5----54|
a|------22-24-5---54-22-24-5----54-22-24-5----54-22-24-5----54|
E|------00-02-3---32-00-02-3----32-00-02-3----32-00-02-3----32|
   
e|---------|
b|---------|
g|---------|8x
d|2-4-5-4-2|
a|2-4-5-4-2|
E|0-2-3-2-0|


thats it! easy song and its the correct version
Tap to rate this tab
# A B C D E F G H I J K L M N O P Q R S T U V W X Y Z