Song name
# A B C D E F G H I J K L M N O P Q R S T U V W X Y Z

Blink 182 - Fighting The Gravity tab

Neighborhoods
Andrew MacKinnon
Hey Guys i made This Guitar tab by ear...im sure its 90% correct i know i might be
missing some things but here is a start if u guys wanna teak it a bit My Youtube is
XxAVAndrew182xX If u wanna message me about this i will awnser any questions .. and 
hopefully get this cover up thanks
\=Slide Down
/=Slide Up

Intro (0:00)
e|---------------------------------------------------------------------|
B|---------------------------------------------------------------------|
G|---------------------------------------------------------------------|
D|-13\-------------------------9---------------------------------------|
A|---------------------------------------------------------------------|
E|--------------12\-/12------------------------------------------------|

e|---------------------------------------------------------------------|
B|---------------------------------------------------------------------|
G|----------------------------------------13---------------------------|
D|--2------------------------------------------------------------------|
A|--2------------------------------------------------------------------|
E|---------------------------------------------------------------------|

e|---------------------------------------------------------------------|
B|--17-----------------------------------------------------------------|
G|-----16-17-16-14-13------(14-13)-------------------------------------|
D|---------------------------------------------------------------------|
A|---------------------------------------------------------------------|
E|---------------------------------------------------------------------|

Verse (1:22)
e|---------------------------------------------------------------------|
B|---------------10\-/-8-----------------------------------------------|
G|---------------------------------------------------------------------|
D|---------------------------------------------------------------------|
A|--7---7--------------------------------------------------------------|
E|---------------------------------------------------------------------|

Chorus (1:47)
e|---------------------------------------------------------------------|
B|---------------------------------------------------------------------|
G|--555555-------------------------------------------------------------|X3
D|--555555---22---777777-----------------------------------------------|
A|--333333---22---777777-----------------------------------------------|
E|-----------00---555555-----------------------------------------------|

(2:08)
e|---------------------------|
B|---------------------------|
G|---------------------------|
D|--5----777-66-666-6--------| x1
A|--5-------------------14\--|
E|--3------------------------|

Verse 2 (2:22)
e|------------------12--18\-------------------------------------------|
B|--------------------------------------------------------------------|
G|---12---------------------------------------------------------------|
D|--------------------------------------------------------------------|
A|--------------------------------------------------------------------|
E|--------12----12----------------------------------------------------|

Chorus (2:35)
e|--------------------------------------------------------------------|
B|--------------------------------------------------------------------|
G|--555555------------------------------------------------------------|
D|--555555---22---777777----------------------------------------------| x3
A|--333333---22---777777----------------------------------------------|
E|-----------00---555555----------------------------------------------|

(2:56)
e|-------------|
B|-------------|
G|-------------|
D|--5----------| x1
A|--5----------|
E|--3----------|

Outro (2:59)
e|--------------------------------|
B|--------------------------------|
G|--------------------------------|
D|--777-66-666-6-666-777-66-666-6-| x1
A|--------------------------------|
E|--------------------------------|
Tap to rate this tab
# A B C D E F G H I J K L M N O P Q R S T U V W X Y Z