Song name
# A B C D E F G H I J K L M N O P Q R S T U V W X Y Z

Blink 182 - Kaleidoscope tab

Drop D.

Intro:
e|--------------------------------------|
B|--------------------------------------|
G|--------------------------------------|
D|-12-11-9-9--7--------12-11-9--9--5----|
A|-9--9--9-12-5--------9--9--9--12-5----|
D|-9--9--9-9--5--------9--9--9--9--5----| x2

Verse:
e|---------------|
B|-----------7---|
G|-7-------7-----|
D|-----7-------7-|
A|---------------|
D|---------------| x2 (The intro is playing in the background.)

Intrumental:
e|--------------------------------------------------------------------------|
B|-3-----------3------------------------------------------------------------|
G|-2-----2-----4-----2------------------------------------------------------|
D|-0-----2-----4-----2------------------------------------------------------|
A|-------0-----------0------------------------------------------------------|
D|--------------------------------------------------------------------------|
The third chord is either the one I've put in there or it's a D like the first chord.

Intro plays again. (Only once though.)

Verse 2:
e|-------------------------|
B|----------7-7-8-7--------|
G|-7-(x12)-----------------|
D|-------------------------|
A|-------------------------|
D|-------------------------| x2 (The intro is playing in the background.)

Pre-chorus:
e|--------------------------------------------------------------------------|
B|--------------------------------------------------------------------------|
G|-9\7-7-7-7-7-7---9\7-7-7-7-7-7--------------------------------------------|
D|-x-x-x-x-x-x-x---x-x-x-x-x-x-x--------------------------------------------|
A|-7\5-5-5-5-5-5---7\5-5-5-5-5-5--------------------------------------------|
D|--------------------------------------------------------------------------|

Chorus 1:
e|-------------------------------------------------|
B|-------------------------------------------------|
G|-------------------------------------------------|
D|-0-0-0-0-7-7-0-0-0-0-7-7-4-4-4-4-4-4-5-5-5-5-5-5-|
A|-0-0-0-0-7-7-0-0-0-0-7-7-4-4-4-4-4-4-5-5-5-5-5-5-|
D|-0-0-0-0-7-7-0-0-0-0-7-7-4-4-4-4-4-4-5-5-5-5-5-5-| x2

Pre-verse:
e|-----------------------|
B|-----------------------|
G|-----------------------|
D|-9-9-9-9-7-7-7-7-7-7-7-|
A|-9-9-9-9-5-5-5-5-5-5-5-|
D|-9-9-9-9-5-5-5-5-5-5-5-| x2

Verse 2. (This time it's x4 and with pre-verse playing in the background.)

Intrumental with Tom singing:
e|--------------------------------------------------------------------------|
B|-3-----------3------------------------------------------------------------|
G|-2--2--2--2--4--2--2--2---------------------------------------------------|
D|-0-----2-----4-----2------------------------------------------------------|
A|-------0-----------0------------------------------------------------------|
D|--------------------------------------------------------------------------|


Chorus 2:
e|--------------------------------------------------------------------------|
B|--------------------------------------------------------------------------|
G|-9\7-7-7-7-7-7---9\7-7-7-7-7-7--------------------------------------------|
D|-x-x-x-x-x-x-x---x-x-x-x-x-x-x--------------------------------------------|
A|-7\5-5-5-5-5-5---7\5-5-5-5-5-5--------------------------------------------|
D|--------------------------------------------------------------------------|

e|-------------------------------------------------|
B|-------------------------------------------------|
G|-------------------------------------------------|
D|-0-0-0-0-7-7-0-0-0-0-7-7-4-4-4-4-4-4-5-5-5-5-5-5-|
A|-0-0-0-0-7-7-0-0-0-0-7-7-4-4-4-4-4-4-5-5-5-5-5-5-|
D|-0-0-0-0-7-7-0-0-0-0-7-7-4-4-4-4-4-4-5-5-5-5-5-5-| x4

e|-----------------|
B|-7-8-10-7-8-10-7~| x3 Plays during the 4's and 5's.
G|-----------------|
D|-----------------|
A|-----------------|
D|-----------------|
And on the 4th time it plays
e|----------------------|
B|-7-5---7-5----7~------|
G|-----7-----7----------|
D|----------------------|
A|----------------------|
D|----------------------|


Interlude:
Part 1:
e|---------------------------------------------| Listen for strumming pattern.
B|---------------------------------------------|
G|-7-9-11--9-11-----------7-9-11--9-7-9--------| I'm pretty sure this is not
D|-x-x-x---x-x--5-7-------x-x-x---x-x-x-2------| what's played, but it sounds
A|-5-7-9---7-9--5-5-------5-7-9---7-5-7-2------| decent.
D|--------------5-5---------------------2------| x2
Part 2:
e|------------------------------------------|
B|------------------------------------------|
G|------------------------------------------|
D|-0------------5-7-------0-------------2---| Listen for strumming pattern.
A|-0------------5-5-------0-------------2---|
D|-0------------5-5-------0-------------2---| x1
Part 3 is part 1 and 2 played at the same time once.

Chorus 3 is chorus 1 played x4 instead of x2. The notes from chorus 2 are playing in the 
background but they are a little different this time.
e|------------------------------------------|
B|-7-8-10-7-8-10-7~---7-5---7-5---7~--------| They are still only played
G|------------------------7-----7-----------| during the 4's and 5's.
D|------------------------------------------|
A|------------------------------------------|
D|------------------------------------------|

e|------------------------------------------|
B|-7-8-10-7-8-10-7~---7-5---7-5-------------|
G|------------------------7-----7-----------| Let it ring out.
D|------------------------------------------|
A|------------------------------------------|
D|------------------------------------------|
Tap to rate this tab
# A B C D E F G H I J K L M N O P Q R S T U V W X Y Z