Song name
# A B C D E F G H I J K L M N O P Q R S T U V W X Y Z

Blink 182 - Wishing Well tab

i gave the strumming for most of it.  the timing in the song parallels the spacing in 
the tab.  i'm pretty sure its all correct

Intro:
Guitar I
e|------------------------------------------------------------------|
B|------------------------------------------------------------------|
G|-10-----------5-----------7-------9-----------9----------10-------|
D|------------------------------------------------------------------|
A|------------------------------------------------------------------|
E|------------------------------------------------------------------|

Guitar II (main riff)
e|------------------------------------------------------------------|
B|------------------------------------------------------------------|
G|-10--10-9---9-5-----5-5---5---5-5-x-x-5---5---5-5-x-x-7---7---x-x-|
D|--x---x-x---x-x-----x-x---x---x-x-x-x-x---x---x-x-x-x-x---x---x-x-|
A|--8---8-7---7-3-----3-3---3---3-3-x-x-3---3---3-3-x-x-5---5---x-x-|
E|------------------------------------------------------------------|
    d   d u   u d     u d   d   d u d u d   d   d u d u d   d   d u



Verse I:
Guitar I (its actually played on bass):
e|------------------------------------------------------------------|
B|------------------------------------------------------------------|
G|------------------------------------------------------------------|
D|-------------10----1010--10--10101010-5---5---5-5-5-5-7---7---7-7-|
A|--7---7-7---7-8-----8-8---8---8-8-8-8-3---3---3-3-3-3-5---5---5-5-|
E|--5---5-5---5-----------------------------------------------------|
    d   d u   u d     u d   d   d u d u d   d   d u d u d   d   d u
Guitar I continued:
e|------------------------------------------------------------------|
B|------------------------------------------------------------------|
G|------------------------------------------------------------------|
D|--------------------------------------5---5---5-5-5-5-------------|
A|--7---7-7---7-3-----3-3---3---3-3-3-3-3---3---3-3-3-3-5---5---5-5-|
E|--5---5-5---5-1-----1-1---1---1-1-1-1-----------------3---3---3-3-|
    d   d u   u d     u d   d   d u d u d   d   d u d u d   d   d u

Guitar II: (main riff)



Pre Chorus:
Guitar I
e|---------------------------------+--------------------------------|
B|------------------------------------------------------------------|
G|--9-9--------1010----------------5-5---------7-7------------------|
D|--9-9--------1010----------------5-5---------7-7------------------|
A|--7-7---------8-8----------------3-3---------5-5------------------|
E|------------------------------------------------------------------|
    d u         d u                d u         d u

Guitar II
e|---------------------------------+--------------------------------|
B|------------------------------------------------------------------|
G|-5---5-5-5-5-5-5---5-5-5-5-5-5-5-5---5-5-5-5-5-5---5-5-5-5-5-5-5--|
D|-x---x-x-x-x-x-x---x-x-x-x-x-x-x-x---x-x-x-x-x-x---x-x-x-x-x-x-x--|
A|-3---3-3-3-3-3-3---3-3-3-3-3-3-3-3---3-3-3-3-3-3---3-3-3-3-3-3-3--|
E|------------------------------------------------------------------|
   d   d u d u d u   u d u d u d u d   d u d u d u   u d u d u d u



Chorus:
Guitar I
e|---------------------------------+--------------------------------|
B|------------------------------------------------------------------|
G|--5---------------------------------------------------------------|
D|--5------------------------------5--------------------------------|
A|--3------------------------------5--------------------------------|
E|---------------------------------3--------------------------------|
Guitar I (continued)
e|---------------------------------+--------------------------------|
B|------------------------------------------------------------------|
G|--------------------------------10--------------------------------|
D|--7-----------------------------10--------------------------------|
A|--7------------------------------8--------------------------------|
E|--5---------------------------------------------------------------|

Guitar II
e|---------------------------------+--------------------------------|
B|------------------------------------------------------------------|
G|-9-9-9-9----10101010----1010-----9-9-9-9----10101010----1010------|
D|-x-x-x-x-----x-x-x-x-----x-x-----x-x-x-x-----x-x-x-x-----x-x------|
A|-7-7-7-7-----8-8-8-8-----8-8-----7-7-7-7-----8-8-8-8-----8-8------|
E|------------------------------------------------------------------|
   d u d u     d u d u     d u     d u d u     d u d u     d u


Verse II
Guitar I (play same bass part from verse I)

Prechorus

Chorus

Intro

Prechorus

Chorus

Last Chorus
Guitar I:
e|---------------------------------+--------------------------------|
B|------------------------------------------------------------------|
G|-5-5-5/7-7-7\5-----5-5---5-5-5-5-5-5-5-7-7-7-5-----5-5---5-5-5-5--|
D|-x-x-x/x-x-x\x-----x-x---x-x-x-x-x-x-x-x-x-x-x-----x-x---x-x-x-x--|
A|-3-3-3/5-5-5\3-----3-3---3-3-3-3-3-3-3-5-5-5-3-----3-3---3-3-3-3--|
E|------------------------------------------------------------------|
   d u d u d u d     u d   d u d u d u d u d u d     u d   d u d u
Guitar I (continued):
e|---------------------------------+--------------------------------|
B|------------------------------------------------------------------|
G|-5-5-5/7-7-7\5-----5-5---5-5-5-5-9-9-9101010-5-----5-5---5-5-5-5--|
D|-x-x-x/x-x-x\x-----x-x---x-x-x-x-x-x-x-x-x-x-x-----x-x---x-x-x-x--|
A|-3-3-3/5-5-5\3-----3-3---3-3-3-3-7-7-7-8-8-8-3-----3-3---3-3-3-3--|
E|------------------------------------------------------------------|
   d u d u d u d     u d   d u d u d u d u d u d     u d   d u d u
Tap to rate this tab
 
# A B C D E F G H I J K L M N O P Q R S T U V W X Y Z