Song name
# A B C D E F G H I J K L M N O P Q R S T U V W X Y Z

Blink 182 - Snake Charmer tab

Intro part 1:
e|---5-----|
B|---------|
G|-6-----6-|
D|---------|
A|---------|
E|---------| x6

Intro part 2:
e|--------------------------|
B|--------------------------|
G|--------------------------|
D|--------------------------| Keep strumming the notes.
A|-4~--5~--7~----4~--5~-----|
E|-----------------------5~-| 

Heavy riff:
e|---------------------|
B|---------------------|
G|-6-------------------|
D|-6-7-7-7~7~7~7~7~6-6-|
A|-4-7-7-7~7~7~7~7~6-6-|
E|---5-5-5~5~5~5~5~4-4-| x8

Verse
e|---|
B|---|
G|---|
D|-7-|
A|-7-| Plays after Heavy riff/start of verse.
E|-5-| 

e|-17-12-13-15-13-12---9-10----| Listen for strumming pattern.
B|--------------------------10-|
G|-----------------------------|
D|-----------------------------|
A|-----------------------------|
E|-----------------------------| x2

Chorus:
e|-------------------|
B|-------------------|
G|-------------------|
D|-11--7-7-7-7-7-7-7-|
A|-x---x-x-x-x-x-x-x-|
E|-9---5-5-5-5-5-5-5-| x8

Pre-verse:
e|-----|
B|-----|
G|-6---|
D|---7-| 
A|-----|
E|-----| x20 (I'm not sure about this number though.)

Heavy riff.

Verse. 

Chorus.

Bridge:
e|----------------------------------------------|
B|----------------------------------------------|
G|-------------------------------5-------6------|
D|-7-------6------4-------2------5-------7------|
A|-7-------7------4-------2------7-(x24)-4-(x8)-|
E|-5-(x24)-4-(x8)-2-(x24)-0-(x8)----------------| x2

Chorus.

Intro part 2. Let it ring.

Outro part 1:
e|-17-12-13-15-13-12---9-10-----|
B|--------------------------10\-|
G|------------------------------|
D|------------------------------|
A|------------------------------|
E|------------------------------| x4
After Outro part 1 has played 2 times Pre-verse comes in.
After Outro part 1 has played 3 times it slowly begins fading out.

Outro part 2:
e|-17-12-13-15-13-12-| I fades out after that last E note.
B|-------------------|
G|-------------------|
D|-------------------|
A|-------------------|
E|-------------------|
Tap to rate this tab
# A B C D E F G H I J K L M N O P Q R S T U V W X Y Z