Guitaretab - guitar tabs
Song name
# A B C D E F G H I J K L M N O P Q R S T U V W X Y Z

Blink 182 - Stay Together For The Kids Live tab

Tabbed by Karl Henrik Lonningdal from Norway;- the skiing country...
Originally tabbed by Tom DeLonge of Blink 182

its a easy song, as soon as youre getting the move on the pic. and remember, 
this is a LIVE VERSION. so dont give me any crap if you think its wrong, cause its not! 

and its different, if you like improvising. 

samma det, her er den t°ffe sangen;

Intro:
e|-----------------|------------------|-------------------|
B|-----------------|------------------|-------------------|
G|-----------------|------------------|-------------------|
D|---0---7-0---4---|---0----5-0---4---|---0---4-0---5-----|
A|-5---5-----5---5-|-4---4------4---4-|-2---2-----2----2--|
E|-----------------|------------------|-------------------|

e|--------------------| X2
B|--------------------|
G|--------------------|
D|---2s4--5--4--2--0--|
A|-0------------------|
E|--------------------|

verse:
e|----------------------------------|
B|------3-------3-------3-------3---|
G|------2-------2-------2-------2---|
D|-0-0-----0-0-----0-0-----0-0------|
A|----------------------------------|
E|----------------------------------|
   It's hard to wake up...

e|----------------------------------|
B|-----3------3------3------3-------|
G|-----2------2------2------2-------|
D|----------------------------------|
A|-2-2----2-2----2-2----2-2---------|
E|----------------------------------|
 When the shades have been pulled shut

e|----------------------------------|
B|-----3------3------3------3-------|
G|-----2------2------2------2-------|
D|----------------------------------|
A|-0-0----0-0----0-0----0-0---------|
E|----------------------------------|
    this house is haunted,

e|----------------------------------|
B|-----5------5------2------2-------|
G|-----2------2------2------2-------|
D|----------------------------------|
A|-0-0----0-0----0-0----0-0---------|
E|----------------------------------|
 Its so pathetic, it makes no sense at all..

e|----------------------------------|
B|------3-------3-------3-------3---|
G|------2-------2-------2-------2---|
D|-0-0-----0-0-----0-0-----0-0------|
A|----------------------------------|
E|----------------------------------|
   Im ripe with things to say

e|----------------------------------|
B|-----3------3------3------3-------|
G|-----2------2------2------2-------|
D|----------------------------------|
A|-2-2----2-2----2-2----2-2---------|
E|----------------------------------|
    the words rot and fall away

e|----------------------------------|
B|-----3------3------3------3-------|
G|-----2------2------2------2-------|
D|----------------------------------|
A|-0-0----0-0----0-0----0-0---------|
E|----------------------------------|
        No stupid poem 
[ Tab from: http://www.guitaretab.com/b/blink-182/29814.html ]
e|----------------------------------|
B|-----5------5------2------2-------|
G|-----2------2------2------2-------|
D|----------------------------------|
A|-0-0----0-0----0-0----0-0---------|
E|----------------------------------|
could fix this home, I'd read it every day.

chorous
e|----------------------------------| X4
B|----------------------------------|
G|----------------------------------|
D|-5555555555555555-4444444444444444|
A|-5555555555555555-5555555555555555|
E|-3333333333333333-2222222222222222|

So heres your holiday
Hope you, enjoy this time.
You Gave it all away.
It was mine.
So when your penis is dead and gone, will you
remember this night. Twenty years now lost,
it's not right.

intro again:
e|-----------------|------------------|-------------------|
B|-----------------|------------------|-------------------|
G|-----------------|------------------|-------------------|
D|---0---7-0---4---|---0----5-0---4---|---0---4-0---5-----|
A|-5---5-----5---5-|-4---4------4---4-|-2---2-----2----2--|
E|-----------------|------------------|-------------------|

e|--------------------| X2
B|--------------------|
G|--------------------|
D|---2s4--5--4--2--0--|
A|-0------------------|
E|--------------------|

then its the same as first verse;

Their anger hurts my ears - 
been running strong for seven years.
Rather then fix the problem, 
they never solve them, it makes no sense at all.
I see them everyday - 
we get along so why can't they?
If this is what he wants, and its what she wants, 
then whys there so much pain?

chorous
e|----------------------------------| X4
B|----------------------------------|
G|----------------------------------|
D|-5555555555555555-4444444444444444|
A|-5555555555555555-5555555555555555|
E|-3333333333333333-2222222222222222|

So heres your holiday
Hope you, enjoy this time.
You Gave it all away.
It was mine.
So when your dead and gone, will you
remember this night. Twenty years now lost,
it's not right.

interlude:

Mark is going like this

G|-77-7-9-7-|---7-9-7-|---7-9-7-|---7-9-7-| X4
D|----------|77-------|55-------|77-------|
A|----------|---------|---------|---------|
E|----------|---------|---------|---------|

e|----------------------------------| X2
B|----------------------------------|
G|----------------------------------|
D|-5555555555555555-4444444444444444|
A|-5555555555555555-5555555555555555|
E|-3333333333333333-2222222222222222|
  (Without lyrics)

e|----------------------------------| X4
B|----------------------------------|
G|----------------------------------|
D|-5555555555555555-4444444444444444|
A|-5555555555555555-5555555555555555|
E|-3333333333333333-2222222222222222|

So heres your holiday
Hope you, enjoy this time.
You Gave it all away.
It was mine.
So when your dead and gone, will you
remember this night. Twenty years now lost,
it's not right.

e|----------------------------------| X2
B|----------------------------------|
G|----------------------------------|
D|-5555555555555555-4444444444444444|
A|-5555555555555555-5555555555555555|
E|-3333333333333333-2222222222222222|
Related for Stay Together For The Kids Live tab