Guitaretab - guitar tabs
Song name
# A B C D E F G H I J K L M N O P Q R S T U V W X Y Z

Blink 182 - First Date Live tab

Blink 182 - First Date (live)

Submitted by Sweedishpimple


intro
e--0---------------------------------------------------------
B---1--1--3-1-1--3-1-1--3-1-1-0-------------repeat---------
G-----0--0----0-0----0-0----0-0--------------twice----------
D-----------------------------------------------------------
A-----------------------------------------------------------
E-----------------------------------------------------------

END INTRO on
G--5
D--5
A--3

(break for bass)
In the car I just canít wait, to pick you up on our very first date
Is it cool if I hold your hand, is it wrong if I think its lame to dance?
(start)
verse(palm muted)
e-----------------------------------------------------------
B-----------------------------------------------------------
G-5-5-5-5-5-5-5-5-5-5-5-5-5-5-5-5-5-5-5-5-5-5-5-5-5-5-5-5-5-
D-----------------------------------------------------------
A-----------------------------------------------------------
E-----------------------------------------------------------
Do you like my stupid hair? Would you guess that I didnít know what to wear? 
Iím just scared of what youíd think, you make me nervous so I really canít eat.

pre-chorus
e-----------------------------------------------------------
B-----------------------------------------------------------
G------------------------------2222------------------------- repeat
D--333-lets go-444-donít wait--2222--3-------------5-------- twice
A--555-(honest)222-(letís make)0000--1-------------3--------
E-----------------------------------------------------------
				    This nights	    Almost over
Chorus				    This night     last forever
e-----------------------------------------------------------
B--------3333-----------------------------------------------
G--5555--0000--1111-----------------------------------------
D--5555--0000--2222--3-5-------------------repeat-----------
A--3333--2222--2222--3-5-------------------two--------------
E--------------------1-3-------------------times------------
   Forever
        And ever
		Lets make this
		     Last ~~ forver	
e--0---------------------------------------------------------
B---1--1--3-1-1--3-1-1--3-1-1-0-------------repeat---------
G-----0--0----0-0----0-0----0-0--------------twice----------
D-----------------------------------------------------------
A-----------------------------------------------------------
E-----------------------------------------------------------

END INTRO on
G--5
D--5
A--3



(bass)
when you smile i melt inside. Iím not worthy for a minute of your time. I 
really wish it was only me and you. Iím jealous of everybody in the room.
(start)


verse 2
e-----------------------------------------------------------
B-----------------------------------------------------------
G-5-5-5-5-5-5-5-5-5-5-5-5-5-5-5-5-5-5-5-5-5-5-5-5-5-5-5-5-5-
D-----------------------------------------------------------
A-----------------------------------------------------------
E-----------------------------------------------------------

Please donít look at me with those eyes. Please donít hint that your 
capable of lies. I dreamt and thought of our very first kiss.
I turned it down Iím probly gonna miss.

[ Tab from: http://www.guitaretab.com/b/blink-182/29935.html ]
pre-chorus
e-----------------------------------------------------------
B-----------------------------------------------------------
G------------------------------2222------------------------- repeat
D--333-lets go-444-donít wait--2222--3-------------5-------- twice
A--555-(honest)222-(letís make)0000--1-------------3--------
E-----------------------------------------------------------
				    This nights	    Almost over
Chorus				    This night     last forever
e-----------------------------------------------------------
B--------3333-----------------------------------------------
G--5555--0000--1111-----------------------------------------
D--5555--0000--2222--3-5-------------------repeat-----------
A--3333--2222--2222--3-5-------------------two--------------
E--------------------1-3-------------------times------------
   Forever
        And ever
		Lets make this
		     Last ~~ forver	

solo(palm muted)
e-----------------------------------------------------------
B-----------------------------------------------------------
G-----------------------------------------------------------
D--55555----------------------------------------repeat------
A--33333----------------------------------------two---------
E---------00000--11111--33333-------------------times-------

solo - part two(*- is a 10)
e-----------------------------------------------------------
B-----------------------------------------------------------
G-55555/999/55/***/55/77777---------repeat-two-times--------
D-xxxxx/xxx/xx/xxx/xx/xxxxx---------------------------------
A-33333/777/33/888/33/55555---------------------------------
E-----------------------------------------------------------

solo - part 3
e-----------------------------------------------------------
B-----------------------------------------------------------
G--55555/444/55/444/77777-----------------------------------
D--xxxxx/xxx/xx/xxx/xxxxx-----------------------------------
A--33333/222/33/222/55555-----------------------------------
E-----------------------------------------------------------


e-----------------------------------------------------------
B-----------------------------------------------------------
G-----------------------------------------------------------
D--55555----------------------------------------repeat------
A--33333----------------------------------------two---------
E---------00000--11111--33333-------------------times-------

pre-chorus
e-----------------------------------------------------------
B-----------------------------------------------------------
G------------------------------2222------------------------- repeat
D--333-lets go-444-donít wait--2222--3-------------5-------- twice
A--555-(honest)222-(letís make)0000--1-------------3--------
E-----------------------------------------------------------
				    This nights	    Almost over
Chorus				    This night     last forever
e-----------------------------------------------------------
B--------3333-----------------------------------------------
G--5555--0000--1111-----------------------------------------
D--5555--0000--2222--3-5-------------------repeat-----------
A--3333--2222--2222--3-5-------------------two--------------
E--------------------1-3-------------------times------------
   Forever
        And ever
		Lets make this
		     Last ~~ forver	

e--0--------------------------------------------------------
B---1--1--3-1-1--3-1-1--3-1-1-0-------------repeat----------
G-----0--0----0-0----0-0----0-0--------------twice----------
D-----------------------------------------------------------
A-----------------------------------------------------------
E-----------------------------------------------------------

end on(let ring)
G-5--*
D-5--*
A-3--*
Related for First Date Live tab