Song name
# A B C D E F G H I J K L M N O P Q R S T U V W X Y Z

Blink 182 - Wishing Well tab

Wishing Well by Blink 182

Intro
Both Guitars
---------------------------------------------|
---------------------------------------------|
-10-10-10-9--5-5-5-5-5--5-5-5-5-5--5-5-5-5-5-|
-10-10-10-9--5-5-5-5-5--5-5-5-5-5--5-5-5-5-5-|  x4
--8--8--8-7--3-3-3-3-3--3-3-3-3-3--3-3-3-3-3-|
---------------------------------------------|

Verse
Both Guitars
---------------------------------------------|
---------------------------------------------|
-10-10-10-9--5-5-5-5-5--5-5-5-5-5--5-5-5-5-5-|
-10-10-10-9--5-5-5-5-5--5-5-5-5-5--5-5-5-5-5-|  x4
--8--8--8-7--3-3-3-3-3--3-3-3-3-3--3-3-3-3-3-|
---------------------------------------------|

Pre-Chorus
Guitar 1
------------------|
------------------|
-9---10---5---7---|
-9---10---5---7---|  x2
-7----8---3---5---|
------------------|

Guitar 2
-------------------|
-------------------|
-5-5-5-5-5-5-5-5-5-|
-------------------|  x2
-------------------|
-------------------|

Chorus
Guitar 1
----------------|
----------------|
-9-9--10-10--10-|
-9-9--10-10--10-|  x8
-7-7---8--8---8-|
----------------|

Guitar 2
---------------------|
---------------------|
-5-------------------|
-5----5----7----3----|  x2
-3----5----7----3----|
------3----5----1----|

Pre-Verse
Both Guitars
---------------------------------------------|
---------------------------------------------|
-10-10-10-9--5-5-5-5-5--5-5-5-5-5--5-5-5-5-5-|
-10-10-10-9--5-5-5-5-5--5-5-5-5-5--5-5-5-5-5-|  x2
--8--8--8-7--3-3-3-3-3--3-3-3-3-3--3-3-3-3-3-|
---------------------------------------------|

Verse
None

Pre-Chorus
Guitar 1
------------------|
------------------|
-9---10---5---7---|
-9---10---5---7---|  x2
-7----8---3---5---|
------------------|

Guitar 2
-------------------|
-------------------|
-5-5-5-5-5-5-5-5-5-|
-------------------|  x2
-------------------|
-------------------|

Chorus
Guitar 1
----------------|
----------------|
-9-9--10-10--10-|
-9-9--10-10--10-|  x8
-7-7---8--8---8-|
----------------|

Guitar 2
---------------------|
---------------------|
-5-------------------|
-5----5----7----3----|  x2
-3----5----7----3----|
------3----5----1----|

Bridge
Guitar 1
-------------------------------------|
-------------------------------------|
-5-----------------------------------|
-5-----------------------------------|
-3-----------------------------------|
-------------------------------------|

Guitar 2
------------------------------------------|
------------------------------------------|
----------------------5-5-5-5-5-5-5-5-5-5-|
----------------------5-5-5-5-5-5-5-5-5-5-|
----------------------3-3-3-3-3-3-3-3-3-3-|
------------------------------------------|

Pre-Chorus
Guitar 1
------------------|
------------------|
-9---10---5---7---|
-9---10---5---7---|  x2
-7----8---3---5---|
------------------|

Guitar 2
-------------------|
-------------------|
-5-5-5-5-5-5-5-5-5-|
-------------------|  x2
-------------------|
-------------------|

Chorus
Guitar 1
----------------      -----------------      -------------------|
----------------      -----------------      -------------------|
-9-9--10-10--10-      -7-7-7-7-5-5-5-5-      -9-9-9-10-10-10-5--|
-9-9--10-10--10-  x8  -7-7-7-7-5-5-5-5-  x3  -9-9-9-10-10-10-5--|
-7-7---8--8---8-      -5-5-5-5-3-3-3-3-      -7-7-7--8--8--8-3--|
----------------      -----------------      -------------------|

Guitar 2
---------------------|
---------------------|
-5-------------------|
-5----5----7----3----|  x4
-3----5----7----3----|
------3----5----1----|

Outro
Both Guitars
---------------------------------------------|
---------------------------------------------|
-10-10-10-9--5-5-5-5-5--5-5-5-5-5--5-5-5-5-5-|
-10-10-10-9--5-5-5-5-5--5-5-5-5-5--5-5-5-5-5-|
--8--8--8-7--3-3-3-3-3--3-3-3-3-3--3-3-3-3-3-|
---------------------------------------------|
Tap to rate this tab
# A B C D E F G H I J K L M N O P Q R S T U V W X Y Z