Song name
# A B C D E F G H I J K L M N O P Q R S T U V W X Y Z

Blink 182 - Wishing Well tab

Tuning: Standard
Song: Wishing Well 
Artist: Blink 182
Album: Neighborhoods (2011)
This is my first tab. I love Blink 182 and it sounds pretty close to the real thing. Enjoy!

Distortion: Medium/High
Listen to the song to get the correct strum-pattern. 
x = chuck
* = palm mute
~ = ring
d= strum down
u= strum up

Intro (quietly w/little to no distortion) 
e|---------------------------------------------------------------|
B|------------------------------------xx--------xx-----xx--------|
G|---10-10-10-9-9-9-5--5-5-5-5-5--5-5-xx-5-5-55-xx-777-xx--------|
D|---7--7--7--7-7-7-3--3-3-3-3-3--3-3-xx-x-x-xx-xx-xxx-xx--------|
A|------------------------------------xx-3-3-33-xx-555-xx--------|
E|---------------------------------------------------------------| x2
     d  u  d  u d u d  u d u d u  d u du d d du du ddu du


Riff (loud w/mid-high distortion) Played a lot throughout the song.
e|---------------------------------------------------------------|
B|------------------------------------xx--------xx-----xx--------|
G|---10-10-10-9-9-9-5--5-5-5-5-5--5-5-xx-5-5-55-xx-777-xx--------|
D|---7--7--7--7-7-7-3--3-3-3-3-3--3-3-xx-x-x-xx-xx-xxx-xx--------|
A|------------------------------------xx-3-3-33-xx-555-xx--------|
E|---------------------------------------------------------------| x2
     d  u  d  u d u d  u d u d u  d u du d d du du ddu du

Thanks and Enjoy! :)
Tap to rate this tab
# A B C D E F G H I J K L M N O P Q R S T U V W X Y Z