Song name
# A B C D E F G H I J K L M N O P Q R S T U V W X Y Z

Blink 182 - This Is Home tab

THIS IS HOME
As recorded by Blink 182 (From the 2011 Album NEIGHBORHOODS)

Transcribed by Santino J. Costa

Words & Music Written by T.Delonge,M,Hoppus,T.Barker

Intro (Guitar I Capo at 2nd Fret)
||------------------|-------------------|
||o-----------------|-------------------|
||--0-0-5-0-4-0-0-0-|--2--0-0-5-0-0-2-5-|
||------------------|-------------------|
||o-----------------|-------------------|
||------------------|-------------------|
|
|   Gtr II
||------------------|-------------------|
||o-----------------|-------------------|
||--2---2---2-2-2-2-|-(2)-2-2---2-2-2-2-|
||--2---2---2-2-2-2-|-(2)-2-2---2-2-2-2-|
||o-0---0---0-0-0-0-|-(0)-0-0---0-0-0-0-|
||------------------|-------------------|


                                       3x
|-----------------|--------------------||
|-----------------|-------------------o||
|-0-0-5-0-4-0-0-0-|--2--0-0-5-0-0-2-5--||
|-----------------|--------------------||
|-----------------|-------------------o||
|-----------------|--------------------||
|
|                                      3x
|-----------------|--------------------||
|---------------3-|-(3)-3-3---3-3-3-3-o||
|---------------2-|-(2)-2-2---2-2-2-2--||
|-4---4---4-4-4-0-|-(0)-0-0---0-0-0-0--||
|-4---4---4-4-4-0-|-(0)-0-0---0-0-0-0-o||
|-2---2---2-2-2---|--------------------||


|-----------------|-------------------|-----------------|-------------------|
|-----------------|-------------------|-----------------|-------------------|
|-0-0-5-0-4-0-0-0-|--2--0-0-5-0-0-2-5-|-0-0-5-0-4-0-0-0-|--2--0-0-5-0-0-2-5-|
|-----------------|-------------------|-----------------|-------------------|
|-----------------|-------------------|-----------------|-------------------|
|-----------------|-------------------|-----------------|-------------------|
|
|-----------------|-------------------|-----------------|-------------------|
|-----------------|-------------------|-----------------|-------------------|
|-----------------|-------------------|-----------------|-------------------|
|-4---4---4-4-4-4-|-(4)-4-4---4-4-4-4-|-2---2---2-2-2-2-|-(2)-2-2---2-2-2-2-|
|-4---4---4-4-4-4-|-(4)-4-4---4-4-4-4-|-2---2---2-2-2-2-|-(2)-2-2---2-2-2-2-|
|-2---2---2-2-2-2-|-(2)-2-2---2-2-2-2-|-0---0---0-0-0-0-|-(0)-0-0---0-0-0-0-|

Verse
|-----------------|-------------------|-----------------|-------------------|
|-----------------|-------------------|-----------------|-------------------|
|-0-0-5-0-4-0-0-0-|--2--0-0-5-0-0-2-5-|-0-0-5-0-4-0-0-0-|--2--0-0-5-0-0-2-5-|
|-----------------|-------------------|-----------------|-------------------|
|-----------------|-------------------|-----------------|-------------------|
|-----------------|-------------------|-----------------|-------------------|
|
|-----------------|-------------------|-----------------|-------------------|
|-----------------|-------------------|-----------------|-------------------|
|-2---2---2-2-2-2-|-(2)-2-2-2-2-2-2-2-|-2---2---2-2-2-2-|-(2)-2-2-2-2-2-2-2-|
|-2---2---2-2-2-2-|-(2)-2-2-2-2-2-2-2-|-2---2---2-2-2-2-|-(2)-2-2-2-2-2-2-2-|
|-0---0---0-0-0-0-|-(0)-0-0-0-0-0-0-0-|-0---0---0-0-0-0-|-(0)-0-0-0-0-0-0-0-|
|-----------------|-------------------|-----------------|-------------------|


|-----------------|-------------------|-----------------|-------------------|
|-----------------|-------------------|-----------------|-------------------|
|-0-0-5-0-4-0-0-0-|--2--0-0-5-0-0-2-5-|-0-0-5-0-4-0-0-0-|--2--0-0-5-0-0-2-5-|
|-----------------|-------------------|-----------------|-------------------|
|-----------------|-------------------|-----------------|-------------------|
|-----------------|-------------------|-----------------|-------------------|
|
|-----------------|-------------------|-----------------|-------------------|
|-3---3---3-3-3-3-|-(3)-3-3-3-3-3-3-3-|-3---3---3-3-3-3-|-(3)-3-3-3-3-3-3-3-|
|-2---2---2-2-2-2-|-(2)-2-2-2-2-2-2-2-|-2---2---2-2-2-2-|-(2)-2-2-2-2-2-2-2-|
|-0---0---0-0-0-0-|-(0)-0-0-0-0-0-0-0-|-0---0---0-0-0-0-|-(0)-0-0-0-0-0-0-0-|
|-0---0---0-0-0-0-|-(0)-0-0-0-0-0-0-0-|-0---0---0-0-0-0-|-(0)-0-0-0-0-0-0-0-|
|-----------------|-------------------|-----------------|-------------------|

Chorus
  Gtr III
|-----------------|-----------------|-----------------|-----------------|
|-----------------|-----------------|-----------------|-----------------|
|-----------------|-----------------|-----------------|-----------------|
|-7-7-7-7-7-7-7-7-|-7-7-7-7-7-7-7-7-|-4-4-4-4-4-4-4-4-|-4-4-4-4-4-6-6-6-|
|-7-7-7-7-7-7-7-7-|-7-7-7-7-7-7-7-7-|-4-4-4-4-4-4-4-4-|-2-2-2-2-2-4-4-4-|
|-5-5-5-5-5-5-5-5-|-5-5-5-5-5-5-5-5-|-2-2-2-2-2-2-2-2-|-----------------|


|-----------------|-----------------|-----------------|-----------------|
|-----------------|-----------------|-----------------|-----------------|
|-----------------|-----------------|-----------------|-----------------|
|-7-7-7-7-7-7-7-7-|-7-7-7-7-7-7-7-7-|-2-2-2-2-2-2-2-2-|-2-2-2-2-2-6-6-6-|
|-5-5-5-5-5-5-5-5-|-7-7-7-7-7-7-7-7-|-2-2-2-2-2-2-2-2-|-2-2-2-2-2-4-4-4-|
|-----------------|-5-5-5-5-5-5-5-5-|-0-0-0-0-0-0-0-0-|-0-0-0-0-0-------|

Bass Solo
Interlude

|-----------------|-----------------|-----------------|-----------------|
|-----------------|-----------------|-----------------|-----------------|
|-----------------|-----------------|-----------------|-----------------|
|-----------------|-----------------|-----------------|-----------------|
|---------5---4---|---------4-4-5-5-|-----------------|---------4-4-5-5-|
|-5-5-5-5---5---5-|-7-5-5-5---------|-5-5-5-5-5-5-5-5-|-5-5-5-5---------|

Song Format:

Intro
Verse 2x
Chorus
Intro(Rhythm Section Only)
Verse 2x
Chorus 2x
Bass Solo
Interlude
Chorus 2x
Tap to rate this tab
# A B C D E F G H I J K L M N O P Q R S T U V W X Y Z