Song name
# A B C D E F G H I J K L M N O P Q R S T U V W X Y Z

Blink 182 - Asthenia tab

Intro  verse and post chorus

      D       Em7      Bm          F#M

E----2222------------X7X7X7X7----X2X2X2X2------|
B----3333----3333----X7X7X7X7----X2X2X2X2------|
G----2222------------X7X7X7X7----X2X2X2X2------|
D------------2222----9999--------4444----------|
A------------2222----9999--------4444----------|
E--------------------7777--------2222----------|

Pre Chorus and Outro
     D     D/F#                 G
E----22----------         E----3333---|
B----33----33----         B-----------|
G----22----22----  x6     G-----------|
D----------------         D-----------|
A----------------         A----2222---|
E----------22----         E----3333---|

Chorus

      D/F#    G       Asus4    A
E------------3333-------------------|
B----3333------------33333----22222-|
G----2222------------22222----22222-|
D-----------------------------22222-|
A------------2222-------------------|
E----2222----3333-------------------|

Bridge

D-A-G-Em7-D-A-G-Em7

D-A-G-A-D-A-G-A

D

This is it guys,this is my first tab, i hope you can play this great song of this great 
band que es blink 182.  A hug from ARGENTINA, ignazio
Tap to rate this tab
# A B C D E F G H I J K L M N O P Q R S T U V W X Y Z