Song name
# A B C D E F G H I J K L M N O P Q R S T U V W X Y Z

Blink 182 - Wishing Well tab

This is my first tab, this one of my favourite songs of the album, I think this is right.

Intro/Verse 1
e|--------------------------------------------------------------|
B|--------------------------------------------------------------|
G|---10-10-10--7-5-5-5-5-x-x-3-3-x-x-5-5------------------------|
D|---x--x--x---x-x-x-x-x-x-x-x-x-x-x-x-x------------------------|
A|---8--8--8---9-3-3-3-3-x-x-5-5-x-x-5-5------------------------|
E|--------------------------------------------------------------|
Play That 8 Times

Pre-Chorus
e|--------------------------------------------------------------|
B|--------------------------------------------------------------|
G|----10---10----5---7------------------------------------------|
D|----9----10----5---7------------------------------------------| x2
A|----7----8-----3---5------------------------------------------|
E|--------------------------------------------------------------|

Chorus
e|--------------------------------------------------------------|
B|--------------------------------------------------------------|
G|--55555555--77777777--55555555--77777777----------------------|
D|--xxxxxxxx--xxxxxxxx--xxxxxxxx--xxxxxxxx----------------------| x2
A|--33333333--33333333--33333333--33333333----------------------|
E|--------------------------------------------------------------|

Repeat The Intro
e|--------------------------------------------------------------|
B|--------------------------------------------------------------|
G|---10-10-10--7-5-5-5-5-x-x-3-3-x-x-5-5------------------------|
D|---x--x--x---x-x-x-x-x-x-x-x-x-x-x-x-x------------------------| x2
A|---8--8--8---9-3-3-3-3-x-x-5-5-x-x-5-5------------------------|
E|--------------------------------------------------------------|

No Guitar During The Second Verse


Pre-Chorus
e|--------------------------------------------------------------|
B|--------------------------------------------------------------|
G|----10---10----5---7------------------------------------------|
D|----9----10----5---7------------------------------------------| x2
A|----7----8-----3---5------------------------------------------|
E|--------------------------------------------------------------|

Chorus
e|--------------------------------------------------------------|
B|--------------------------------------------------------------|
G|--55555555--77777777--55555555--77777777----------------------|
D|--xxxxxxxx--xxxxxxxx--xxxxxxxx--xxxxxxxx----------------------| x2
A|--33333333--33333333--33333333--33333333----------------------|
E|--------------------------------------------------------------|

At The Bridge There's No Guitar Till About 2:17, But This Is Played Silently
e|--------------------------------------------------------------|
B|--------------------------------------------------------------|
G|--5555555555555555--------------------------------------------|
D|--xxxxxxxxxxxxxxxx--------------------------------------------| 
A|--3333333333333333--------------------------------------------|
E|--------------------------------------------------------------|

Pre-Chorus
e|--------------------------------------------------------------|
B|--------------------------------------------------------------|
G|----10---10----5---7------------------------------------------|
D|----9----10----5---7------------------------------------------| x2
A|----7----8-----3---5------------------------------------------|
E|--------------------------------------------------------------|


Chorus
e|--------------------------------------------------------------|
B|--------------------------------------------------------------|
G|--55555555--77777777--55555555--77777777----------------------|
D|--xxxxxxxx--xxxxxxxx--xxxxxxxx--xxxxxxxx----------------------| x2
A|--33333333--33333333--33333333--33333333----------------------|
E|--------------------------------------------------------------|
Tap to rate this tab
# A B C D E F G H I J K L M N O P Q R S T U V W X Y Z