Song name
# A B C D E F G H I J K L M N O P Q R S T U V W X Y Z

Blink 182 - Natives tab

INTRO
  Part a

E |-------------------------------------------------------|
B |--0-0--4p0--5p0--4p0--2p0--4p0--2p0--4p0---------------| 
G |-------------------------------------------------------|
D |-------------------------------------------------------|
A |-------------------------------------------------------|
E |-------------------------------------------------------|-
                                                            -
  Part a cont.                                               - Intro a X 4
                                                            -
E |-------------------------------------------------------|-
B |--2p0--4p0--5p0--4p0--2p0--4p0--2p0--4p0---------------|
G |-------------------------------------------------------|
D |-------------------------------------------------------|
A |-------------------------------------------------------|
E |-------------------------------------------------------|
                                                            
  Part b                                                     
                                                            
E |-------------------------------------------------------|
B |--0-0--7p0--5p0--4p0--2p0--4p0--2p0--4p0---------------|
G |-------------------------------------------------------|
D |-------------------------------------------------------|
A |-------------------------------------------------------|
E |-------------------------------------------------------|-
                                                            -
  Part b cont.                                               -Intro b X 4
                                                            -
E |-------------------------------------------------------|-
B |--2p0--4p0--5p0--4p0--2p0--4p0--2p0--4p0---------------|
G |-------------------------------------------------------|
D |-------------------------------------------------------|
A |-------------------------------------------------------|
E |-------------------------------------------------------|

Verse

E| -------------------------------------2-0---0-----------|-
B| -----------------------------------------0-------------| -
G| -------------------------------------------------------|  -
D| -6-66-66-6-66-66-6-66-66-8-8-8-------------------------|  -Verse X 4
A| -6-66-66-6-66-66-6-66-66-X-X-X---2---------------------| -
E| -4-44-44-4-44-44-4-44-44-6-6-6---0-0-------------------|-

Chorus
 Part a
  
E| -------------------------------------------------------|-
B| -------------------------------------------------------| -
G| -44444444--44444444------------------------------------|  -
D| -44444444--44444444--22222222--22222222----------------|   - Chorus a X 2
A| -22222222--22222222--22222222--22222222----------------|  -
E| ---------------------00000000--00000000----------------|-
                                                            
 Part b                                                       
                                                               
E| --------------------------------------------------------------------|-
B| --------------------------------------------------------------------| -
G| --------------------------------------------------------------------|  -
D| -6-66-66-6-66-66--6-66-66-6-66-66--2-22-22-2-22-22--2-22-22-2-22-22-| b X2
A| -6-66-66-6-66-66--6-66-66-6-66-66--2-22-22-2-22-22--2-22-22-2-22-22-|  -
E| -4-44-44-4-44-44--4-44-44-4-44-44--0-00-00-0-00-00--0-00-00-0-00-00-|-

INTRO
  Part a

E |-------------------------------------------------------|
B |--0-0--4p0--5p0--4p0--2p0--4p0--2p0--4p0---------------| 
G |-------------------------------------------------------|
D |-------------------------------------------------------|
A |-------------------------------------------------------|
E |-------------------------------------------------------|-
                                                            -
  Part a cont.                                               - Intro a X 4
                                                            -
E |-------------------------------------------------------|-
B |--2p0--4p0--5p0--4p0--2p0--4p0--2p0--4p0---------------|
G |-------------------------------------------------------|
D |-------------------------------------------------------|
A |-------------------------------------------------------|
E |-------------------------------------------------------|

Verse

E| -------------------------------------2-0---0-----------|-
B| -----------------------------------------0-------------| -
G| -------------------------------------------------------|  -
D| -6-66-66-6-66-66-6-66-66-8-8-8-------------------------|  - Verse X 4
A| -6-66-66-6-66-66-6-66-66-X-X-X---2---------------------| -
E| -4-44-44-4-44-44-4-44-44-6-6-6---0-0-------------------|-

Chorus
 Part a
  
E| -------------------------------------------------------|-
B| -------------------------------------------------------| -
G| -44444444--44444444------------------------------------|  -
D| -44444444--44444444--22222222--22222222----------------|   - Chorus a X 2
A| -22222222--22222222--22222222--22222222----------------|  -
E| ---------------------00000000--00000000----------------|-
                                                            
 Part b                                                       
                                                               
E| --------------------------------------------------------------------|-
B| --------------------------------------------------------------------| -
G| --------------------------------------------------------------------|  -
D| -6-66-66-6-66-66--6-66-66-6-66-66--2-22-22-2-22-22--2-22-22-2-22-22-| b X2
A| -6-66-66-6-66-66--6-66-66-6-66-66--2-22-22-2-22-22--2-22-22-2-22-22-|  -
E| -4-44-44-4-44-44--4-44-44-4-44-44--0-00-00-0-00-00--0-00-00-0-00-00-|-

Bridge

E| -------------------------------------------------|-
B| -------------------------------------------------| -
G| --4--3--6--4--------8--6--9--8-------------------|  -
D| --x--x--x--x--------x--x--x--x-------------------|   - Bridge x 4
A| --2--1--4--2--------6--4--7--6-------------------| -  
E| -------------------------------------------------|-

Chorus
 Part a
  
E| -------------------------------------------------------|-
B| -------------------------------------------------------| -
G| -44444444--44444444------------------------------------|  -
D| -44444444--44444444--22222222--22222222----------------|   - Chorus a X 2
A| -22222222--22222222--22222222--22222222----------------|  -
E| ---------------------00000000--00000000----------------|-
                                                            
 Part b                                                       
                                                               
E| --------------------------------------------------------------------|-
B| --------------------------------------------------------------------| -
G| --------------------------------------------------------------------|  -
D| -6-66-66-6-66-66--6-66-66-6-66-66--2-22-22-2-22-22--2-22-22-2-22-22-| b X2
A| -6-66-66-6-66-66--6-66-66-6-66-66--2-22-22-2-22-22--2-22-22-2-22-22-|  -
E| -4-44-44-4-44-44--4-44-44-4-44-44--0-00-00-0-00-00--0-00-00-0-00-00-|-

INTRO
  Part a

E |-------------------------------------------------------|
B |--0-0--4p0--5p0--4p0--2p0--4p0--2p0--4p0---------------| 
G |-------------------------------------------------------|
D |-------------------------------------------------------|
A |-------------------------------------------------------|
E |-------------------------------------------------------|-
                                                            -
  Part a cont.                                               - Intro a X 4
                                                            -
E |-------------------------------------------------------|-
B |--2p0--4p0--5p0--4p0--2p0--4p0--2p0--4p0---------------|
G |-------------------------------------------------------|
D |-------------------------------------------------------|
A |-------------------------------------------------------|
E |-------------------------------------------------------|

OUTRO

E| -------------------------------------------------------|-
B| -------------------------------------------------------| -
G| -------------------------------------------------------|  -
D| -666666666666666-8-8-8---2-----------------------------|  - OUTRO X 4
A| -666666666666666-X-X-X---2-----------------------------| -
E| -444444444444444-6-6-6---0-----------------------------|-
Tap to rate this tab
 
# A B C D E F G H I J K L M N O P Q R S T U V W X Y Z