Song name
# A B C D E F G H I J K L M N O P Q R S T U V W X Y Z

Blink 182 - Mh 4182011 tab

       Title: MH 4.18.2011
Artist: Blink 182
Album: Neighborhoods

Before you start the intro, to make that noise Tom DeLonge does on his
guitar, strum the strings below the tuning pegs of your guitar.

Intro/Chorus
e|---------------------------------------------------------------------------|
B|-(0)-----------(0)---------------------------------------------------------|
G|--2--2----------2-x-2------------------------------------------------------|
D|--2--2--4--2----2-x-2---4--2-----------------------------------------------|
A|--0--0--4--2----0-x-0---4--2-----------------------------------------------|
E|--------2--0------------2--0-----------------------------------------------|

Preverse
e|---------------------------------------------------------------------------|
B|---------------------------------------------------------------------------|
G|---------------------------------------------------------------------------|
D|--2-x-2-x-2-x-2-x-2-x-2-x-222----------------------------------------------|
A|--2-x-2-x-2-x-2-x-2-x-2-x-222----------------------------------------------|
E|--0-x-0-x-0-x-0-x-0-x-0-x-000----------------------------------------------|

Verse (Lead)
e|---------------------------------------------------------------------------|
B|---------------------------------------------------------------------------|
G|--11-9---------------------------------------------------------------------|
D|--x--x---------------------------------------------------------------------|
A|--9--7---------------------------------------------------------------------|
E|---------------------------------------------------------------------------|

Verse (Rhythm)
e|---------------------------------------------------------------------------|
B|---------------------------------------------------------------------------|
G|--9------------------------------------------------------------------------|
D|--9--7---------------------------------------------------------------------|
A|--7--7---------------------------------------------------------------------|
E|-----5---------------------------------------------------------------------|

Pre Chorus
e|---------------------------------------------------------------------------|
B|---------------------------------------------------------------------------|
G|--4--6--2--4-x--6--2-------------------------------------------------------|
D|--4--6--2--4-x--6--2--6----------------------------------------------------|
A|--2--4--0--2-x--4--0--7----------------------------------------------------|
E|----------------------4----------------------------------------------------|

Chorus (Rhythm)
e|---------------------------------------------------------------------------|
B|-(0)-----------(0)---------------------------------------------------------|
G|--2--2----------2-x-2------------------------------------------------------|
D|--2--2--4--2----2-x-2---4--2-----------------------------------------------|
A|--0--0--4--2----0-x-0---4--2-----------------------------------------------|
E|--------2--0------------2--0-----------------------------------------------|

Chorus (Lead) all notes ring out
e|---------------------------------------------------------------------------|
B|-------------9--------------9------------10------------9--7----------------|
G|--9---9---9-----9---9---9-----9---9---9-----9---9---9----------------------|
D|----9---9---------9---9---------9---9---------9---9------------------------|
A|---------------------------------------------------------------------------|
E|---------------------------------------------------------------------------|

e|---------------------------------------------------------------------------|
B|-------------9--------------9------------7------------9--------------------|
G|--9---9---9-----9---9---9-----9---9---9-----9---9---9----------------------|
D|----9---9---------9---9---------9---9---------9---9------------------------|
A|---------------------------------------------------------------------------|
E|---------------------------------------------------------------------------|

Bridge
e|---------------------------------------------------------------------------|
B|---------------------------------------------------------------------------|
G|--11-s--9--11-s--9--8-s-9--6-----------------------------------------------|
D|--x-----x--x-----x--x---x--6--4--------------------------------------------|
A|--9--s--7--9--s--7--6-s-7--4--4--------------------------------------------|
E|------------------------------2--------------------------------------------|

e|---------------------------------------------------------------------------|
B|---------------------------------------------------------------------------|
G|--11-s--9--11-s--9--8-s-9--6--4--------------------------------------------|
D|--x-----x--x-----x--x---x--6--4--------------------------------------------|
A|--9--s--7--9--s--7--6-s-7--4--2--------------------------------------------|
E|---------------------------------------------------------------------------|

e|---------------------------------------------------------------------------|
B|---------------------------------------------------------------------------|
G|--222222222222222----------------------------------------------------------|
D|--222222222222222----------------------------------------------------------|
A|--000000000000000----------------------------------------------------------|
E|---------------------------------------------------------------------------|

Outro
e|--------|
B|--------|
G|--------|
D|--2~~~~~|
A|--2~~~~~|
E|--0~~~~~|

Intro x 2
Pre Verse x 1
Verse x 4
Pre Chorus x 1
Chorus x 2
Pre Verse x 1
Verse x 2
Pre Chorus x 1
Chorus x 2
Bridge x 2
Chorus x 4
Outro
Tap to rate this tab
# A B C D E F G H I J K L M N O P Q R S T U V W X Y Z