Song name
# A B C D E F G H I J K L M N O P Q R S T U V W X Y Z

Blink 182 - Mutt Acoustic chords

CAPO 2

Chords:

G     - 320033
G/B   - x2x033
Cadd9 - x32033
Em7   - 022033
Dsus4 - xx0233
A7sus4- x02233

Intro:

Guitar 1:
G---Cadd9---3x

Guitar 2:
e-------------------------|
B-------0~----------------|
G----0~-------------------|  16x
D---------0~--------------|
A-------------------------|
E-------------------------|

Verse:

Guitar 1:
G                        A7sus4             Dsus4
He pauses shaving and he tells himself that he is the bomb
G                           A7sus4           Dsus4
She has her curlers set her credit cards are paying the funds

Guitar 2:
e----------------------------|
B----------------------------|
G--0--0--2--2--4--4--2--2----|  2x
D-------------------0--0-----|
A-------------2--2-----------|
E-3--3--3--3-----------------|

Guitar 1:
G                            Em7           Dsus4
He's not that old, I've been told a strong sexual goal
G                   Em7       Dsus4         Cadd9
He goes out everyday she goes every way oh yeah
               Dsus4
And they don't even care at all

Chorus:

Guitar 1:
G-------A7sus4---Cadd9-G/B- 2x

G                          A7sus4    Cadd9  G/B
She's open waiting for more
           G                         A7sus4    Cadd9  G/B
And I know he's only looking to score
          G
And it is way to unhealthy
A7sus4        Cadd9  G/B
Often they've typically
     G                          A7sus4    Cadd9  G/B
Been starved for attention before

Guitar 2:
(Fingerpick this part, start when the lyrics come in)
e--------8-7--------|
B-8~~~10~----8~~~---|
G-------------------|  4x
D-5~~~5~~5-5-5~~~---|
A-------------------|
E-------------------|

Interlude:

Guitar 1:
G---Cadd9---2x

Guitar 2:
e-------------------------|
B-------0~----------------|
G----0~-------------------|  16x
D---------0~--------------|
A-------------------------|
E-------------------------|

Verse:

Guitar 1:
G                         A7sus4             Dsus4
She smokes a dozen and he doesn't seem to notice the smell
G                            A7sus4           Dsus4
He took the seat off his own bike because the way that it felt

Guitar 2:
e----------------------------|
B----------------------------|
G--0--0--2--2--4--4--2--2----|  2x
D-------------------0--0-----|
A-------------2--2-----------|
E-3--3--3--3-----------------|

Guitar 1:
G                       Em7          Dsus4
He wants to bone this I know she is ready to blow
G                      Em7           Dsus4             Cadd9
They go out every night his pants are super tight oh yeah
               Dsus4
And they don't even care at all

Chorus:

Guitar 1:
G-------A7sus4---Cadd9-G/B- 2x

G                          A7sus4    Cadd9  G/B
She's open waiting for more
           G                         A7sus4    Cadd9  G/B
And I know he's only looking to score
          G
And it is way to unhealthy
A7sus4        Cadd9  G/B
Often they've typically
     G                          A7sus4    Cadd9  G/B
Been starved for attention before

Guitar 2:
(Fingerpick this part, start when the lyrics come in)
e--------8-7--------|
B-8~~~10~----8~~~---|
G-------------------|  4x
D-5~~~5~~5-5-5~~~---|
A-------------------|
E-------------------|

Interlude:
Palm mute the chorus chords twice. First time just palm mute, the second do it 
with a little rhythm.

G-------A7sus4---Cadd9-G/B- 2x

Play the Intro notes with the Chorus chords only ONCE. Like so:

Guitar 1:
G-------A7sus4---Cadd9-G/B-2x

Guitar 2:
e-------------------------|
B-------0~----------------|
G----0~-------------------|  8x
D---------0~--------------|
A-------------------------|
E-------------------------|

Chorus:

Guitar 1:
G                          A7sus4    Cadd9  G/B
She's open waiting for more
           G                         A7sus4    Cadd9  G/B
And I know he's only looking to score
          G
And it is way to unhealthy
A7sus4        Cadd9  G/B
Often they've typically
     G                          A7sus4    Cadd9  G/B
Been starved for attention before

Guitar 2:
(Fingerpick this part, start when the lyrics come in)
e--------8-7--------|
B-8~~~10~----8~~~---|
G-------------------|  4x
D-5~~~5~~5-5-5~~~---|
A-------------------|
E-------------------|

Outro: (let the chords ring out)

G~~~A7sus4~~Cadd9~G/B 2x

End on the G and you're done!

Hope you liked this tab!
Tap to rate this tab
 
# A B C D E F G H I J K L M N O P Q R S T U V W X Y Z