Song name
# A B C D E F G H I J K L M N O P Q R S T U V W X Y Z

Blink 182 - This Is Home tab

                           this is home-blink 182
                           
                  ok i know its not perfect so ill edit it later
tabed by:robbie.theclud
tuning:standard
intro 4x
e|----------------------------------:|
b|----------------------------------:|
g|------7---6--------------6-------6:|
d|---7-7---7--7-7-7-9-7-7----7-7-9--:|
a|----------------------------------:|
E|----------------------------------:|   

 verse4x
e|---------------------------------:|
b|---------------------------------:|
g|------7---6--------------6------6:|
d|---7-7---7--7-7-7-9-7-7---7-7-9--:|
a|---------------------------------:|
E|---------------------------------:|

chorus
e|----------------------------------------------------------------|
b|----------------------------------------------------------------|
g|---7-7-7-7-7-7-7-7---------------------------------4-4-4-4-6-6-6|
d|---7-7-7-7-7-7-7-7-7-7-7-7-7-7-7-7-4-4-4-4-4-4-4-4-x-x-x-x-x-x-x|
a|---5-5-5-5-5-5-5-5-7-7-7-7-7-7-7-7-4-4-4-4-4-4-4-4-2-2-2-2-4-4-4|
E|-------------------5-5-5-5-5-5-5-5-2-2-2-2-2-2-2-2--------------|
                                           hold out the last note
e|-------------------------------------------------------------------------|
a|-------------------------------------------------------------------------|
g|7-7-7-7-7-7-7-7---------------------------------2-2-2-2-2-2-2-2-4-4-6-6-2|
d|7-7-7-7-7-7-7-7-7-7-7-7-7-7-7-7-4-4-4-4-4-4-4-4-2-2-2-2-2-2-2-2-x-x-x-x-2|
a|5-5-5-5-5-5-5-5-7-7-7-7-7-7-7-7-4-4-4-4-4-4-4-4-0-0-0-0-0-0-0-0-2-2-4-4-0|
E|----------------5-5-5-5-5-5-5-5-2-2-2-2-2-2-2-2--------------------------|

this is the little thing before the verse goes again

e|----------------------------------|
b|--------2-------------------------|
g|------------2---------------------|
d|-------------------2--------------|
a|----------------------0-----------|
E|----------------------------------|


the just repeat the verse then chorus then there is a bass and drumm solo thing 
then the chorus.yes i know the chorus changes but i dont have that down 100% 
yet...anyways enjoy!!!!
Tap to rate this tab
 
# A B C D E F G H I J K L M N O P Q R S T U V W X Y Z