Song name
# A B C D E F G H I J K L M N O P Q R S T U V W X Y Z

Blink 182 - What Went Wrong tab

16.) What Went Wrong

Key: A

Tuning: Standard EADGBe

Chords:
A -   x02220
F#m - 244222
E -   022100
D -   xx0232
Bm -  x24432


Intro:
e-------------|
B-------------|
G-----4---2*--|
D-2-----------|
A-------------| x4
E-------------|


A--F#m-D x4


Verse 1:
A                  F#m
I'm sick of always hearing
          E                    D
All those sad songs on the radio
A             F#m
All day it is there to remind
        E
An over-sensitive guy that he's
D
lost and alone yeah


Interlude:
e-------------|
B-------------|
G-----4---2*--|
D-2-----------|
A-------------| x4
E-------------|

A--F#m-D x2


Verse 2:
A                    F#m
I hate our favourite restaurant
              E              D
Our favourite movie our favourite show
A                F#m
We would stay up all of the night
         E
We would laugh and get
           D
high never answer the phone


Chorus:
A          E
I can't forgive
         F#m
can't forget
           D
Can't give in
          A
What went wrong coz
    E             F#m
you said this was right
    D
You fucked up my life


Interlude:
e-------------|
B-------------|
G-----4---2*--|
D-2-----------|
A-------------| x4
E-------------|

A--F#m-D x4


Verse 3:
A                  F#m
I'm sick of always hearing
      E                     D
Sappy love songs on the radio
A
This place it's fucking
F#m
cursed and it's plagued
          E
And I can never escape
        D
when my heart it explodes


(Repeat Chorus)


Guitar Solo:
        F#m                 D
e|-----0-----------|-----0-----------|
B|-------------2---|-------------2---|
G|---2---2---2---2-|---2---2---2---2-|
D|-----------------|-0-------0-------|
A|-----------------|-----------------|
E|-2-------2-------|-----------------|
        x2                  x2

         A                  Bm                       D
e|-----0-----------|-----0-----------|----------------------------------|
B|-------------2---|-------------2---|-----2-----2-----2--2-2--2-2--2-2-|
G|---2---2---2---2-|---2---2---2---2-|---2-----2-----2----2-2--2-2--2-2-|
D|-----------------|-----------------|-0-----0-----0------0-0--0-0--0-0-|
A|-0-------0-------|-2-------2-------|----------------------------------|
E|-----------------|-----------------|----------------------------------|


Clarinet Solo:
   F#m      D           A
e|-----|---------|--------------|
B|-----|---------|------2--3--5-|
G|-2---|-1--2--4-|--2-----------|
D|-----|---------|--------------| x2
A|-----|---------|--------------|
E|-----|---------|--------------|

   E   D
e|---|---|
B|-0-|---|
G|---|-2-|
D|---|---|
A|---|---|
E|---|---|


Outro:
    A           F#m        D
I'm kicking out fiercely at the
      A          F#m      D
World around me, what went wrong X4
    A
I'm kicking

__________________________
Tap to rate this tab
# A B C D E F G H I J K L M N O P Q R S T U V W X Y Z