Song name
# A B C D E F G H I J K L M N O P Q R S T U V W X Y Z

Blink 182 - Give Me One Good Reason tab

Give Me One Good Reason

Key: E

Tuning: Standard EADGBe

Chords used:
E -    022100
B -    x24442
C#m -  x46654
E/G# - 476xxx
A -    x02220


Intro: E--B x2, C#m--A--C#m--B


Guitar 2:
         E                 B
e|----------------|-----------------|
B|----------------|-----------------|
G|-----1-----1----|-----------------|
D|---2-----2---2--|---4-2---4-2---4-| x2
A|-2-----2--------|-2-----2-----2---|
E|----------------|-----------------|

         C#m               A
e|-----------------|-----------------|
B|-----------------|-----------------|
G|---1-----1-----1-|-----------------|
D|-----2-----2-----|---2-2---2-2---2-|
A|-4-----4-----4---|-0-----0-----0---|
E|-----------------|-----------------|

         C#m               B
e|-----------------|-----------------|
B|-----------------|-----------------|
G|---1-----1-----1-|-----------------|
D|-----2-----2-----|---4-2---4-2---2-|
A|-4-----4-----4---|-2-----2-----2---|
E|-----------------|-----------------|


Verse 1:
E                  B
  Mom and dad they quite
don't understand it
E                   B
  All the kids they laugh
as if they planned it
C#m
  Why do girls want to
A
pierce their nose?
C#m
  And walk around in
B
torn pantyhose Oh yeah!


Interlude: E--B x2

Guitar 2:
        E              B
e|--------------|--------------|
B|--------------|--------------|
G|------------1-|--------------|
D|-2-2-2-2-2----|--------1h2-2-| x2
A|-2-2-2-2-2----|--2-2-2-------|
E|-0-0-0-0-0----|--------------|


Verse 2:
E
  I like the ones who say
     B
they listen to the punk rock
E
  I like the kids who fought
 B
against how they were brought up
C#m
  They hate the trends and
          A
think its fucked to care
C#m
  It's cool when they
            B
piss people off
with what they wear Oh yeah!


(Repeat Interlude)


Chorus:
   E       E/G#     B
So give me one good reason
E      E/G#    B       A
Why we need to be like them
E         E/G#         B
Kids will have fun and offend
E          E/G#
They don't want to
    B         A
and don't fit in


(Repeat Intro)


Verse 3:
E
  Hate the jocks the preps
    B
the hippy-fuckin-scumbags
E
  Heavy metalers with their
B
awful pussy hair bands
C#m
  Counting seconds until
A
we can get away
C#m
  Ditching school almost
B
every single day Oh yeah!


(Repeat Interlude twice)
(Repeat Chorus)


Bridge: C#m--A--C#m--B--C#m--A--C#m--B-A-E(hold)


Guitar 2:

-------------------------------|
-------------------------------|
--9--9--9--11--11--11--13--13--|
--x--x--x---x---x---x---x---x--|
--7--7--7---9---9---9--11--11--|
-------------------------------|

   E   E   E   E   Q    E  E     EE  E  E  E  E  E  E
------------------------------|--------------------------|
------------------------------|--------------------------|
--13--14--14--14--13----9--9--|--9--9--9--4--4--4--4--4--|
---x---x---x---x---x----x--x--|--x--x--x--x--x--x--x--x--|
--11--12--12--12--11----7--7--|--7--7--7--2--2--2--2--2--|
------------------------------|--------------------------|

  E  E  E  E  E  E  E  E   E  E  E   E   E   E   E E
--------------------------|-------------------------------|
--------------------------|-------------------------------|
--9--9--9--4--4--4--4--4--|--9--9--9--11--11--11--13--13--|
--x--x--x--x--x--x--x--x--|--x--x--x---x---x---x---x---x--|
--7--7--7--2--2--2--2--2--|--7--7--7---9---9---9--11--11--|
--------------------------|-------------------------------|

   E   E   E   E   Q    Q        E   E E   E   E   S  S E  E
-----------------------------|----------------------------------|
-----------------------------|----------------------------------|
--13--14--14--14--13----9----|--11--11--11--11--11--13-11-9--9--|
---x---x---x---x---x----x----|---x---x---x---x---x---x--x-x--x--|
--11--12--12--12--11----7----|---9---9---9---9---9--11--9-7--7--|
-----------------------------|----------------------------------|

  E   E   E   E   E   S  S Q       EE  E   E   E   E   E   E
--------------------------------|-------------------------------|
--------------------------------|-------------------------------|
--9--11--11--11--11--13-11-9----|--9--9--9--11--11--11--13--13--|
--x---x---x---x---x---x--x-x----|--x--x--x---x---x---x---x---x--|
--7---9---9---9---9--11--9-7----|--7--7--7---9---9---9--11--11--|
--------------------------------|-------------------------------|

   E   E   E   E   Q    E  E     EE  E  E  E  E  E  E
------------------------------|--------------------------|
------------------------------|--------------------------|
--13--14--14--14--13----9--9--|--9--9--9--4--4--4--4--4--|
---x---x---x---x---x----x--x--|--x--x--x--x--x--x--x--x--|
--11--12--12--12--11----7--7--|--7--7--7--2--2--2--2--2--|
------------------------------|--------------------------|

  E  E  E  E  E  E  E  E   E  E  E   E   E   E   E E
--------------------------|-------------------------------|
--------------------------|-------------------------------|
--9--9--9--4--4--4--4--4--|--9--9--9--11--11--11--13--13--|
--x--x--x--x--x--x--x--x--|--x--x--x---x---x---x---x---x--|
--7--7--7--2--2--2--2--2--|--7--7--7---9---9---9--11--11--|
--------------------------|-------------------------------|

   E   E   E   E   Q    Q        E   E E   E   E   S  S E  E
-----------------------------|----------------------------------|
-----------------------------|----------------------------------|
--13--14--14--14--13----9----|--11--11--11--11--11--13-11-9--9--|
---x---x---x---x---x----x----|---x---x---x---x---x---x--x-x--x--|
--11--12--12--12--11----7----|---9---9---9---9---9--11--9-7--7--|
-----------------------------|----------------------------------|

  E   E   E   E   E   E  E E
-------------------------------|----|
-------------------------------|----|
--9--11--11--11--11--13--9--8--|--9-|
--x-------x---x---x---x--x-----|----|
--7---9---9---9---9--11--7--6--|--7-|
-------------------------------|----|


(Repeat Chorus)


Outro: E(hold)
Tap to rate this tab
# A B C D E F G H I J K L M N O P Q R S T U V W X Y Z