Song name
# A B C D E F G H I J K L M N O P Q R S T U V W X Y Z

Blink 182 - Ghost On The Dance Floor tab

blink-182 - Ghost on the Dance Floor
Album:  Neighborhoods
Guitarist(s):  Tom DeLonge
Tuning:  Standard (EADGBe)

                 Key: x - mute string/note
                      / - slide note/chord
                      ~ - let note/chord ring
                      P.M. - Palm Mute
Intro:
(Fading in)
e|---|-------------------------|
B|-o-|-------------------------|
G|---|-------------------------|
D|---|-------------------------|
A|-o-|-------------------------|
E|---|-9/7-x-x-7-x-x-7-7-7-7-7-|x3

e|---------------------------|
B|---------------------------|
G|---------------------------|
D|---------------------------|
A|-----x-x---x-x---x-----6---|
E|-9/7-x-x-7-x-x-7-x-7-6---7-|

e|---------------------|---|------------------------|
B|---------------------|-o-|------------------------|
G|---------------------|---|------------------------|
D|---------------------|---|------------------------|
A|-x-x---x-x-----------|-o-|----x-x---x-x-----------|
E|-x-x-7-x-x-7-7-7-7-7-|---|9/7-x-x-7-x-x-7-7-7-7-7-|x2 
                        x1                           
e|-----------------------|
B|-----------------------|
G|-----------------------|
D|-----------------------|
A|-----x-x---x-x---x-----|
E|-9/7-x-x-7-x-x-7-x-7-6-|

Pre-Verse 1 (Now louder):
e|--------------------------|
B|--------------------------|
G|--------------------------|
D|-13/9-----9-----9-9-9-9-9-|
A|--x/x-x-x-x-x-x-x-x-x-x-x-|           \
E|-11/7-x-x-7-x-x-7-7-7-7-7-|            \
                                          \
e|---|--------------------------|          \
B|-o-|--------------------------|           \
G|---|--------------------------|            \
D|---|-11/9-----9-----9-9-9-9-9-|             \
A|-o-|-x/-x-x-x-x-x-x-x-x-x-x-x-|              \
E|---|-9/-7-x-x-7-x-x-7-7-7-7-7-|x2             \
                                                 \  Play this section twice.
e|------------------------|                      /
B|------------------------|                     /
G|------------------------|                    /
D|-11/9-----9-x-x-9-x-9-8-|                   /
A|-x/-x-x-x-x-x-x-x-x-x-x-|                  /
E|-9/-7-x-x-7-x-x-7-x-7-6-|                 /

After second time, end this section on:
e|----|
B|----|
G|----|
D|-9~-|
A|-x--|
E|-7~-|

Verse 1:
e|---|-------------------------------------------------|
B|-o-|-------------------------------------------------|
G|---|-11-11-11-11-9-9-9-9--8-8--9-9-9-9--8-8-8-8--9-9-|
D|---|-9--9--9--9--9-9-9-9--9-9--9-9-9-9--9-9-9-9--9-9-|
A|-o-|-------------------------------------------------|
E|---|-------------------------------------------------|x8

Chorus 1:
There are two guitar parts here.  Guitar one plays:
e|---|--------------|
B|-o-|--------------|
G|---|-4~-----------|
D|---|-x----2~--4~--|
A|-o-|-2~---2~--4~--|
E|---|------0~--2~--|x2

Guitar 2 plays this throughout:
e|-----------------------------------------------------|
B|-----------------------------------------------------|
G|-11-11-11-11-9-9-9-9--9-9--11-11-11-11-9-9-9-9--8-8--|
D|-9--9--9--9--9-9-9-9--9-9--9--9--9--9--9-9-9-9--9-9--|
A|-----------------------------------------------------|
E|-----------------------------------------------------|

End this section on:
e|----|
B|----|
G|-4~-|
D|-x--|
A|-2~-|
E|----|

Pre-Verse 2:
e|--------------------------|
B|--------------------------|
G|--------------------------|
D|-13/9-----9-----9-9-9-9-9-|
A|--x/x-x-x-x-x-x-x-x-x-x-x-|           \
E|-11/7-x-x-7-x-x-7-7-7-7-7-|            \
                                          \
e|---|--------------------------|          \
B|-o-|--------------------------|           \
G|---|--------------------------|            \
D|---|-11/9-----9-----9-9-9-9-9-|             \
A|-o-|-x/-x-x-x-x-x-x-x-x-x-x-x-|              \
E|---|-9/-7-x-x-7-x-x-7-7-7-7-7-|x2             \
                                                 \  Play this section twice.
e|------------------------|                      /
B|------------------------|                     /
G|------------------------|                    /
D|-11/9-----9-x-x-9-x-9-8-|                   /
A|-x/-x-x-x-x-x-x-x-x-x-x-|                  /
E|-9/-7-x-x-7-x-x-7-x-7-6-|                 /

After second time, end this section on:
e|----|
B|----|
G|----|
D|-9~-|
A|-x--|
E|-7~-|

Verse 2:
e|---|-------------------------------------------------|
B|-o-|-------------------------------------------------|
G|---|-11-11-11-11-9-9-9-9--8-8--9-9-9-9--8-8-8-8--9-9-|
D|---|-9--9--9--9--9-9-9-9--9-9--9-9-9-9--9-9-9-9--9-9-|
A|-o-|-------------------------------------------------|
E|---|-------------------------------------------------|x4

Chorus 2:
There are two guitar parts here.  Guitar one plays:
e|---|--------------|
B|-o-|--------------|
G|---|-4~-----------|
D|---|-x----2~--4~--|
A|-o-|-2~---2~--4~--|
E|---|------0~--2~--|x4

Guitar 2 plays this throughout:
e|-----------------------------------------------------|
B|-----------------------------------------------------|
G|-11-11-11-11-9-9-9-9--9-9--11-11-11-11-9-9-9-9--8-8--|
D|-9--9--9--9--9-9-9-9--9-9--9--9--9--9--9-9-9-9--9-9--|
A|-----------------------------------------------------|
E|-----------------------------------------------------|

End this section on:
e|----|
B|----|
G|-4~-|
D|-x--|
A|-2~-|
E|----|

Interlude:
e|---|-----------------|
B|-o-|-----------------|
G|---|-4~--------------|
D|---|-x---------------|
A|-o-|-2~----1-2-------|
E|---|-----2~-----2222-|x4
P.M.              ....

At this point, it's mostly bass and loud drums, but the guitar is feeding back 
quite a bit utilizing these chords:

e|--------------------|
B|--------------------|
G|-4~-----------------|
D|-x-------2~-----4~--|
A|-2~------2~-----4~--|
E|---------0~-----2~--|

Chorus 3/Outro:
There are two guitar parts here.  Guitar one plays:
e|---|--------------|
B|-o-|--------------|
G|---|-4~-----------|
D|---|-x----2~--4~--|
A|-o-|-2~---2~--4~--|
E|---|------0~--2~--|x4

Guitar 2 plays this throughout:
e|-----------------------------------------------------|
B|-----------------------------------------------------|
G|-11-11-11-11-9-9-9-9--9-9--11-11-11-11-9-9-9-9--8-8--|
D|-9--9--9--9--9-9-9-9--9-9--9--9--9--9--9-9-9-9--9-9--|
A|-----------------------------------------------------|
E|-----------------------------------------------------|

End on:
e|----|
B|----|
G|-4~-|
D|-x--|
A|-2~-|
E|----|
Tap to rate this tab
# A B C D E F G H I J K L M N O P Q R S T U V W X Y Z