Song name
# A B C D E F G H I J K L M N O P Q R S T U V W X Y Z

Blink 182 - Anthem Part Two tab

Anthem Part 2

Key: C

Tuning: Standard EADGBe

Chords used:
C -   x32010
Dm -  xx0231
Am -  x02210
F -   133211
C/E - 032xxx or Em - 022000
G -   320003


Intro:

Part 1:

C(hold) x2

Guitar 2:
e|-3---3---1---1---0---0---1---1---|
B|---1---1---1---1---1---1---1---1-|
G|---------------------------------|
D|---------------------------------| x2
A|---------------------------------|
E|---------------------------------|

Part 2: C--Dm--Am--F x4

Guitar 2:
e|-3---3---1---1---0---0---1---1---|
B|---1---1---1---1---1---1---1---1-|
G|---------------------------------|
D|---------------------------------| x4
A|---------------------------------|
E|---------------------------------|

Guitar 3: will enter at 3rd time
e|---------------|-----------------|
B|---------------|-----------------|
G|---------------|-----------------|
D|-------3-----2-|-----0-------0---| x2
A|-3-3-3---3-3---|-3-3---3-3-3---3-|
E|---------------|-----------------|
        x3

Part 3:

C--Am-F x2

Guitar 2:
e|-0--1--0-----0--1--0--------0--1--0-----0--1----|
B|----------1-----------1--3-----------1--------1-|
G|------------------------------------------------|
D|------------------------------------------------|
A|------------------------------------------------|
E|------------------------------------------------|


Verse 1:
C              Am        F
Everything has fallen to pieces
C              Am      F
Earth is dying help me Jesus
C                Am         F
We need guidance we've been misled
C                 Am       F
Young and hostile but not stupid


Mark:
    Am       G      F
G|---9---|---7---|---5-|
D|-7---7-|-5---5-|-3---|
A|-------|-------|-----|
E|-------|-------|-----|


Verse 2:
C                 Am  F
Corporate leaders politicians
C                Am     F
Kids can't vote adults elect them
C                   Am        F
Moms that rule the school and workplace
C                  Am        F
Signs that caution sixteen's unsafe

Mark:
    Am       G      F
G|---9---|---7---|---5-|
D|-7---7-|-5---5-|-3---|
A|-------|-------|-----|
E|-------|-------|-----|


Chorus:
          C/E  F  C        G
We really need to see this through
         C/E F      C   G
We never wan-ted to be abused
            Am   F   C      G
We'll never give up it's no use
   Am              F(hold)
If we're fucked up you're to blame


(Repeat Intro Part 3)


Verse 2:
C                   Am         F
Let this trainwreck burn more slowly
C                Am       F
Kids are victims in this story
C                      Am      F
Drowned our youth with useless warnings
C                      Am         F
Teenage rules: they're fucked and boring


Mark:
    Am       G      F
G|---9---|---7---|---5-|
D|-7---7-|-5---5-|-3---|
A|-------|-------|-----|
E|-------|-------|-----|


(Repeat Chorus)


Interlude:

Mark:
         C             Am         F
G|-----------------|---------|---------|
D|-----------------|---------|---------|
A|-3-3-3-3-3-3-3-3-|-0-0-0-0-|---------| x2
E|-----------------|---------|-1-1-1-1-|


Interlude:
C              Am        F
Everything has fallen to pieces
C              Am        F
Everything has fallen to pieces
C(all the way)
Everything has fallen to piece
Everything has fallen to


(Repeat Chorus)


Outro:

C--Dm--Am--F x2

Guitar 3:
e|---------------|-----------------|
B|---------------|-----------------|
G|---------------|-----------------|
D|-------3-----2-|-----0-------0---| x2
A|-3-3-3---3-3---|-3-3---3-3-3---3-|
E|---------------|-----------------|
        x3

Guitar 2:
e|-3---3---1---1---0---0---1---1---|
B|---1---1---1---1---1---1---1---1-|
G|---------------------------------|
D|---------------------------------| x2
A|---------------------------------|
E|---------------------------------|
Tap to rate this tab
 
# A B C D E F G H I J K L M N O P Q R S T U V W X Y Z