Song name
# A B C D E F G H I J K L M N O P Q R S T U V W X Y Z

Blink 182 - Mutt tab

blink 182 -mutt
tabbed by gabo_182
palm muted = * 

INTRO:

e------------------------|
B------------------------|
G---6-------6-------6----|
D-7-------7------7-------|
A-------7------7---------|
E------------------------|
 
VERSE
"He pauses shaving and he tell himself that he is the bomb..."
e------------------------------------------------------|
B------------------------------------------------------|
G------------------------------------------------------|
D-----2-----2-----7h9------11-----11------7h9------7h9-|
A-0-0---0-0---0-0------9-9----9-9-----7-7------7-7-----|
E------------------------------------------------------|
PM* *   * *   * *      * *    * *     * *      * *

CHORUS
"He's not that old, I've been told, a strong sexual goal..."
e-----------------------------------------------------------|
B-----------------------------------------------------------|
G-222222---------------222222--------------777777-77--99999-|
D-222222--4444--2222---222222--4444--2222--777777-77--99999-|
A-000000--4444--2222---000000--4444--2222--555555-55--77777-|
E---------2222--0000-----------2222--0000-------------------|

VERSE B
"She's open waiting for more, and I know he's only looking to score..."
e---------------------------|
B---------------------------|
G---------------------------|
D-77-7-7777--77777--777-777-|
A-XXXXXXXXX--XXXXX--555-444-|
E-55-5-5555--77777----------|

INTERLUDE 
e|--------------------------------------------------|
B|--------------------------------------------------|
G|--------------------------------------------------|
D|---------------7-7--7-7------------------7-7--7-7-|
A|-7-7----9-9----5-5--4-4----7-7----9-9----5-5--4-4-|
E|-5-5----7-7----------------5-5----7-7-------------|
   * *    * *    * *  * *    * *    * *    * *  * *

OUTRO
e|-----------------------------|
B|-----------------------------|
G|-----------------------------|
D|-2--4--7--7----2--4--7--7----|
A|-0--2--5--4----0--2--5--4----|
E|-----------------------------|

END ON 

e|------|
B|------|
G|-2~---|
D|-2~---|
A|-0~---|
E|------|

Tap to rate this tab
# A B C D E F G H I J K L M N O P Q R S T U V W X Y Z