Song name
# A B C D E F G H I J K L M N O P Q R S T U V W X Y Z

Blink 182 - Going Away To College chords

Highlighted       Show chord diagrams
Blink 182
Going Away To College
Enema Of The State
1999 MCA Records
Submitted by: paramore_fans@yahoo.com

Key: B

Tuning: Standard EADGBe

Chords used:
B -   x24442
F# -  244322
G#m - 466444
E -   022100


Intro:

Part 1: Silent
             B                          E
e|-------------------------|-------------------------|
B|-4--4--4-4-4-2--2--2-2-2-|-4--4--4-4-4-2--2--2-2-2-|
G|-4--4--4-4-4-4--4--4-4-4-|-4--4--4-4-4-4--4--4-4-4-|
D|-4--4--4-4-4-4--4--4-4-4-|-2--2--2-2-2-2--2--2-2-2-|
A|-2--2--2-2-2-2--2--2-2-2-|-------------------------|
E|-------------------------|-------------------------|
             x2                         x2

             B                                 E
e|--------------------------|---------------------------------------|
B|-4--4--4-4-4--2--2--2-2-2-|-4--4--4-4-4-2--2--2-2-2-4--4--4-4-4-2-|
G|-4--4--4-4-4--4--4--4-4-4-|-4--4--4-4-4-4--4--4-4-4-4--4--4-4-4-4-|
D|-4--4--4-4-4--4--4--4-4-4-|-2--2--2-2-2-2--2--2-2-2-2--2--2-2-2-2-|
A|-2--2--2-2-2--2--2--2-2-2-|---------------------------------------|
E|--------------------------|---------------------------------------|
             x2

Part 2: Distortion x2
        B              E          F#
e|--------------|--------------|-------|
B|------------4-|------------4-|-----2-|
G|-----4--------|-----4--------|-------|
D|--------------|-2-2----2-2---|-4-4---|
A|-2-2----2-2---|--------------|-------|
E|--------------|--------------|-------|
        x2                        x2


Verse 1:
B
  Please take me by the hand
E              F#
  It's so cold out tonight
B
  I'll put blankets on the bed
E              F#
  I won't turn out the light
     B
Just don't forget
  E       F#
to think about me
      B
And I won't forget you
E                 F#
  "I'll write you once
a week" she said


(Repeat Intro Part 2)


Verse 2:
B
  Why does it
feel the same
   E
To fall in love
   F#
or break it off
    B
And if young love
is just a game
    E
Then I must have
F#
missed the kick off
B
  Don't depend on
E          F#
Me to ever follow
through on
B
Anything but
E
  I'd go through
F#
hell for you and


Chorus 1:
Abm         E
  I haven't been
this scared
B      F#
  In a long time
Abm
  And I'm so
E
unprepared
B
  So here's
     F#
your valentine
Abm
  Bouquet of
E
clumsy words
B          F#
  A simple melody
Abm
  This world's
   E
an ugly place
B
  But you're so
F#
beautiful to me


(Repeat Intro Part 2)


Verse 3:
B
  I'll think about
the times
E
  She kissed me
F#
after class
   B
And she put up
with my friends
E         F#
  I acted like an ass
   B
I'd ditch my lecture
E              F#
  To watch the girls
play soccer
B
  Is my picture
E
  Still hanging
F#
in your locker?


Chorus 2:
Abm         E
  I haven't been
this scared
B      F#
  In a long time
Abm
  And I'm so
E
unprepared
B
  So here's
     F#
your valentine
Abm
  Bouquet of
E
clumsy words
B          F#
  A simple melody
Abm
  This world's
   E
an ugly place
B
  But you're so
F#
beautiful


(Repeat Intro Part 1)
(Repeat Chorus 2)
Tap to rate this tab
 
# A B C D E F G H I J K L M N O P Q R S T U V W X Y Z