Song name
# A B C D E F G H I J K L M N O P Q R S T U V W X Y Z

Blink 182 - Give Me One Good Reason tab

 Capo 2nd fret! 
Intro

E:-------------------------------------------------------------|
B:-------------------------------------------------------------|
G:-------------------------------------------------------------|
D:----6-----6--------0-----0---------6-----6-------0-----0-----| Then...
A:---7----7---7----9-----9-----9---7----7---7----9-----9-----9-|
D:-9----9--------9-----9-----9---9----9--------9-----9-----9---|

E:----------------------------------------  --------------------|
B:----------------------------------------  --------------------|
G:----------------------------------------X2--7-7-7-7-----------|
D:-------0-------0-----------0-----0------  --------------------|
A:----11------11------11---5-----5-----5--  --------------------|
D:-11------11------11----5-----5-----5----  --------------------|
Tap to rate this tab
# A B C D E F G H I J K L M N O P Q R S T U V W X Y Z