Song name
# A B C D E F G H I J K L M N O P Q R S T U V W X Y Z

Blink 182 - Time To Break Up tab

Blink 182 - Time To Break Up
Take off Your Pants and Jacket

Intro

E|--------------------------------------|
B|--------------------------------------|
G|-----------------6-6------------------|
D|-6-6--444--333---6-6------------------|
A|-6-6--444--444---4-4------------------|
e|-4-4--222--111-1----------------------|

Main Riff

E|-------------------------------------------------------------------------|
B|-------------------------------------------------------------------------|
G|-------------------------------------------------------------------------|
D|---33-11---33-11---33-11--4-44--6-66-------------------------------------|
A|-4------------------------4-44--6-66-------------------------------------|
e|---------1-------4--------2-22--4-44-------------------------------------|
                              **    **

Verse

E|--------------| Repeated a bunch of times
B|--------------|
G|-6-6----------|
D|-6-6----------|
A|-4-4----------|
e|--------------|

Then this guitar comes in and plays on top of the C#5

E|------------------------------------------------------------------------|
B|------------------------------------------------------------------------|
G|-1010-1010-1010-1010-88-88-88-88-1010-1010-1010-1010-88-88-66-66--------|
D|-x-x--x-x--x-x--x-x--xx-xx-xx-xx-x-x--x-x--x-x--x-x--xx-xx-xx-xx--------|
A|-8-8--8-8--8-8--8-8--66-66-66-66-8-8--8-8--8-8--8-8--66-66-44-44--------|
e|------------------------------------------------------------------------|

Chorus

E|-------------| Each chord is played 8 times, repeat twice.
B|-------------|
G|-6-----------|
D|-6--3--4--6--|
A|-4--4--4--6--|
e|----1--2--4--|

Bridge

Bass part on guitar

E|-----------------------------------------------------------------------|
B|-----------------------------------------------------------------------|
G|-----------------------------------------------------------------------|
D|-----------------------------------------------------------------------|
A|-1-4-1-4-1-4-1-4---4---4--4--4--4--4--4--4--6--6--6--6-----------------|
e|-----------------2---2--2--2--1--1--1--1--4--4--4--4-------------------|

Guitar comes in 

E|---------------------------------------------------------------------|
B|---------------------------------------------------------------------|
G|-6--6------------------------------------------66-66-----------------|
D|-6--6----6--6----4--4----6--6------------------66-66-----------------|
A|-4--4----6--6----4--4----6--6------------------44-44-----------------|
e|---------4--4----2--2----4--4----------------------------------------|

Play chorus

Outro 
E|---------------------------------------------------------------------|
B|---------------------------------------------------------------------|
G|-1010-101010-101010-101010--888-888-888-888--------------------------|
D|-x-x--x-x-x--x-x-x--x-x-x---xxx-xxx-xxx-xxx--------------------------|
A|-8-8--8-8-8--8-8-8--8-8-8---666-666-666-666--------------------------|
e|---------------------------------------------------------------------|
Tap to rate this tab
# A B C D E F G H I J K L M N O P Q R S T U V W X Y Z