Song name
# A B C D E F G H I J K L M N O P Q R S T U V W X Y Z

Blink 182 - Untitled tab

Intro x3 (0:00-0:34)
e---------------------------------------------------------|
b---------------------------------------------------------|
g-44444-4444444---------------44444-4444444---------------|
d-44444-4444444-22222-4444444-44444-4444444-22222-4444444-|
a-22222-2222222-22222-4444444-22222-2222222-22222-4444444-|
e---------------00000-2222222---------------00000-2222222-|



(0:35-0:56)
e---------------------------------------------------------|
b---------------------------------------------------------|
g-8--8/9--9\4--4/6--6/8--8/9--9\4--4/6--4-----------------|
d-8--8/9--9\4--4/6--6/8--8/9--9\4--4/6--4-----------------|
a-6--6/7--7\2--2/4--4/6--6/7--7\2--2/4--2-----------------|
e---------------------------------------------------------|


x2 (0:57-1:05)
e---------------------------------------------------------|
b---------------------------------------------------------|
g-4444444-----------------999-888-------------------------|
d-4444444-6666666-4444444-999-888-------------------------|
a-2222222-6666666-4444444-777-666-------------------------|
e---------4444444-2222222---------------------------------|


x4 (1:06-1:21)
e---------------------------------------------------------|
b---------------------------------------------------------|
g-4444444444444444----------------------------------------|
d-4444444444444444-22222222-44444444----------------------|
a-2222222222222222-22222222-44444444----------------------|
e------------------00000000-22222222----------------------|

(1:22-1:26)
e---------------------------------------------------------|
b---------------------------------------------------------|
g-----------------------------------4444444444444444------|
d-6666666666666666-2222222222222222-4444444444444444------|
a-6666666666666666-2222222222222222-2222222222222222------|
e-4444444444444444-0000000000000000-----------------------|

(1:27-1:32)
e------------------ ------------------|
b------------------ ------------------|
g------------------ ------------------|
d-4444444444444444- 66666666-22222222-|
a-4444444444444444- 66666666-22222222-|
e-2222222222222222- 44444444-00000000-|

(1:33-

e------------------ ------------------|
b------------------ ------------------|
g-4444444444444444- ------------------|
d-4444444444444444- 44444444-22222222-|
a-2222222222222222- 44444444-22222222-|
e------------------ 22222222-00000000-|





Palm muted x4 (1:36-1:50)
e----------------------------------------------------|
b----------------------------------------------------|
g----------------------------------------------------|
d---1-4---2-1---1-4---2-1----------------------------|
a-2-----2-----------2--------------------------------|
e-------------2--------------------------------------|

(1:51-1:57)
e----------------------------------------------------|
b----------------------------------------------------|
g-99999999999999999999999999999999999999999999999999-|
d-xxxxxxxxxxxxxxxxxxxxxxxxxxxxxxxxxxxxxxxxxxxxxxxxxx-|
a-77777777777777777777777777777777777777777777777777-|
e-xxxxxxxxxxxxxxxxxxxxxxxxxxxxxxxxxxxxxxxxxxxxxxxxxx-|


(1:57-2:02)
e-----------------------------------------------------|
b-----------------------------------------------------|
g-----------------------------------4444444444444444--|
d-6666666666666666-2222222222222222-4444444444444444--|
a-6666666666666666-2222222222222222-2222222222222222--|
e-4444444444444444-0000000000000000-------------------|

(2:03-2:08)
e-----------------------------------------------------|
b-----------------------------------------------------|
g-----------------------------------------------------|
d-4444444444444444-6666666666666666-2222222222222222--|
a-4444444444444444-6666666666666666-2222222222222222--|
e-2222222222222222-4444444444444444-0000000000000000--|

(2:09-2:22)
e-----------------------------------|
b-----------------------------------|
g-4444444444444444------------------| x4
d-4444444444444444-4444444444444444-|
a-2222222222222222-4444444444444444-|
e------------------2222222222222222-|

Ends
e----------------------|
b----------------------|
g----------------------|
g-4--------------------|
d-4--------------------|
a-2--------------------|
Tap to rate this tab
 
# A B C D E F G H I J K L M N O P Q R S T U V W X Y Z