Song name
# A B C D E F G H I J K L M N O P Q R S T U V W X Y Z

Blink 182 - Rock Show tab

My tab for "The Rock Show" by blink-182

Take off your pants and jacket!




intro
e|----------------------------------------------|
B|----------------------------------------------|
G|----------------------------------------------|
D|-------------2--------0-----------------------|
A|-0--0--0--0-----0--0----0--0--4--0-----0------|
E|------------------------------------2---------|

e|----------------------------------------------|
B|----------------------------------------------|
G|----------------------------------------------|
D|-------------2--------0-----------------------|
A|-0--0--0--0-----0--0----0--0-----4--7--4--0---|
E|----------------------------------------------|

play the intro x2


pre-verse
e|--------------------------------------------------|
B|--------------------------------------------------|
G|--------------------------------------------------|
D|-7777777777777777---------------------------------|
A|-7777777777777777---------------------------------|
E|-5555555555555555---------------------------------|
   ................

Verse 1
e|-------------------------------------|
B|-------------------------------------|
G|------------------7-777777-9-999999--| x2
D|-7-77777777777777-7-777777-9-999999--|
A|-7-77777777777777-5-555555-7-777777--|
E|-5-55555555555555--------------------|
     ..............   ......   ......

repeat intro x2


verse 2

e|------|
B|------|
G|------|    let ring
D|-7~---|
A|-7~---|
E|-5~---|



Chorus
e|---------------------|
B|---------------------|
G|----------------7-7--|  x3
D|-7-7-7-7-\-4-4--7-7--|
A|-7-7-7-7-\-4-4--5-5--|
E|-5-5-5-5-\-2-2-------|


post chorus
e|------------------------|
B|------------------------|
G|-99999999--77777777-----| x2
D|-99999999--77777777-----|
A|-77777777--55555555-----|
E|------------------------|
   ........  ........

e|------------------------|
B|------------------------|
G|-99999999--7--6---------|
D|-99999999--7--6---------|
A|-77777777--5--4---------|
E|------------------------|
   ........


repeat intro x2


Verse 3
e|-------------------------------------|
B|-------------------------------------|
G|------------------7-777777-9-999999--| x2
D|-7-77777777777777-7-777777-9-999999--|
A|-7-77777777777777-5-555555-7-777777--|
E|-5-55555555555555--------------------|
     ..............   ......   ......

Chorus
e|---------------------|
B|---------------------|
G|----------------7-7--|  x3
D|-7-7-7-7-\-4-4--7-7--|
A|-7-7-7-7-\-4-4--5-5--|
E|-5-5-5-5-\-2-2-------|


post chorus
e|------------------------|
B|------------------------|
G|-99999999--77777777-----| x2
D|-99999999--77777777-----|
A|-77777777--55555555-----|
E|------------------------|
   ........  ........

e|------------------------|
B|------------------------|
G|-99999999--7--6---------|
D|-99999999--7--6---------|
A|-77777777--5--4---------|
E|------------------------|
   ........


interlude

guitar 1
e|---------------------|
B|-2--------2-----3----|
G|----2--------2-----2-|  repeat
D|---------------------|
A|---------------------|
E|---------------------|


guitar 2
comes in after guitar 1 plays 4 times

e|----------------------------------------------------------------------|
B|----------------------------------------------------------------------|
G|-------------------777777777777777-------------------9999999-7777777--|
D|-444444444444444---555555555555555--777777777777777--7777777-5555555--|
A|-222222222222222---555555555555555--555555555555555--7777777-5555555--|
E|-222222222222222--------------------555555555555555-------------------|


Chorus
e|---------------------|
B|---------------------|
G|----------------7-7--|  x3
D|-7-7-7-7-\-4-4--7-7--|
A|-7-7-7-7-\-4-4--5-5--|
E|-5-5-5-5-\-2-2-------|


post chorus
e|------------------------|
B|------------------------|
G|-99999999--77777777-----| x2
D|-99999999--77777777-----|
A|-77777777--55555555-----|
E|------------------------|
   ........  ........

e|------------------------|
B|------------------------|
G|-99999999--7--6---------|
D|-99999999--7--6---------|
A|-77777777--5--4---------|
E|------------------------|
   ........


Now play the intro until the end of the song



--------The end----------
Tap to rate this tab
# A B C D E F G H I J K L M N O P Q R S T U V W X Y Z