Song name
# A B C D E F G H I J K L M N O P Q R S T U V W X Y Z

Blink 182 - Wishing Well tab

e|------------------------------------------|
B|------------------------------------------|
G|-101010-9--9-5-55555555x55555x555555------|<--- these notes may be bass
D|-x-x-x--x--x-3-33333333xxxxxxxxxxxxx------| \but sound good on guitar 
A|-8-8-8--7--7------------33333x555555------|  as well.
E|------------------------------------------|  \
                                                 x2
Guitar 2                                        /
e|------------------------------------------| 
B|------------------------------------------|/
G|-101010-9--9-5-55555555x55555x555555------|
D|-x-x-x--x--x-3-33333333xxxxxxxxxxxxx------|
A|-8-8-8--7--7------------33333x555555------| 
E|------------------------------------------| 


Verse:

0:10 "It's been a really..."
e|-------------------------------------------|
B|-------------------------------------------|
G|-101010-9--95-555555555555555xx555555------|
D|-x-x-x--x--xx-xxxxxxxxxxxxxxxxxxxxxxx------|
A|-8-8-8--7--73-333333333333333xx333333------|
E|-------------------------------------------| x6


Pre-Chorus: 0:39 "La da dat dat, la da dut dah..."

e|-------------------------------------------|
B|-------------------------------------------|
G|-8--------9---------5--------7-------------|
D|-9--------9---------5--------7-------------|
A|-6--------7---------3--------5-------------|
E|-------------------------------------------|


Chorus: 0:50
"I went to a wishing well, it sunk to the ocean floor..."
Guitar 1
e|--------------------------------------------------------------------|
B|--------------------------------------------------------------------|
G|--5-----------------------------------------------------------------|
D|--5--------------5---------------7---------------3------------------|
A|--3--------------5---------------7---------------3------------------|
E|-----------------3---------------5---------------1------------------|
Guitar 2
e|--------------------------------------------------------------------|
B|--------------------------------------------------------------------|
G|-5555xx5777xx77xx5555xx5777xx77xx5555xx5777xx77xx5555xx5777xx77xx---|
D|-xxxxxxxxxxxxxxxxxxxxxxxxxxxxxxxxxxxxxxxxxxxxxxxxxxxxxxxxxxxxxxxx---|
A|-3333xx3555xx55xx3333xx3555xx55xx3333xx3555xx55xx3333xx3555xx55xx---|
E|--------------------------------------------------------------------|

[Repeat Intro]

(Guitar does not play the second verse)(("...on the narrowing line"))
at 1:37 the repeating guitar sound is (or before every dada dada)
e|-----------------------------------------------------|
B|-----------------------------------------------------|
G|-----------------------------------------------------|
D|---10-10-10-10-10-10-10-10-10-10-10-10-10-10---------| < repeat until chorus
A|---10-10-10-10-10-10-10-10-10-10-10-10-10-10---------| <
E|-----------------------------------------------------|

[Repeat Pre-Chorus]

[Repeat Chorus]

Bridge: 2:09

e|----------------------------------------------------------------------|
B|----------------------------------------------------------------------|
G|-5--------------------------------------------------------------------|
D|-3---[may not be right but sounds fitting   ]-------------------------|
A|-5--------------------------------------------------------------------|
E|----------------------------------------------------------------------|

[Repeat Pre-Chorus]

[Repeat Chorus x2]

last chorus when song is about to break 2:52

e|-------------------------------|
B|-------------------------------|
G|-5-------7------9------10------|
D|-x-(x16)-x-(x16)x-(x16)x-(x16)-|
A|-3-------5------7------8-------|
E|-------------------------------|

Repeat Intro

I listened by ear.

If any questions email me at 

hoppusdelonge182@gmail.com
Tap to rate this tab
# A B C D E F G H I J K L M N O P Q R S T U V W X Y Z