Song name
# A B C D E F G H I J K L M N O P Q R S T U V W X Y Z

Blink 182 - Natives tab

============
Natives
Blink-182
Neighborhoods (2011)
Tuning: Standard
============

Intro:
                                    x1                                x7
E|-------------------------------------|---------------------------------|
B|-0-0-4p0-5p0-4p0-2p0-4p0-2p0-4p0-2p0-|-4p0-5p0-4p0-2p0-4p0-2p0-4p0-2p0-|
G|-------------------------------------|---------------------------------|
D|-------------------------------------|---------------------------------|
A|-------------------------------------|---------------------------------|
E|-------------------------------------|---------------------------------|
 
                                                                       x8     
E|-------------------------------------|---------------------------------|
B|-0-0-7p0-5p0-4p0-2p0-4p0-2p0-4p0-2h0-|-4p0-5p0-4p0-2p0-4p0-2p0-4p0-2p0-|
G|-------------------------------------|---------------------------------|
D|-------------------------------------|---------------------------------|
A|-------------------------------------|---------------------------------|
E|-------------------------------------|---------------------------------|

Verse:
                                      x4
E|--------------------------------------|
B|----------------------------7-7-5-4-5~|
G|--------------------------------------|
D|-6-6-6-6-6-6-6-6/8-8-8-8-2~-----------|
A|-6-6-6-6-6-6-6-6/8-8-8-8-2~-----------|
E|-4-4-4-4-4-4-4-4/6-6-6-6-0~-----------|

Chorus:
                                                                   x2
E|---------------------------------|---------------------------------|
B|---------------------------------|---------------------------------|
G|-4-4-4-4-4-4-4-4-4-4-4-4-4-4-4-4-|---------------------------------|
D|-4-4-4-4-4-4-4-4-4-4-4-4-4-4-4-4-|-2-2-2-2-2-2-2-2-2-2-2-2-2-2-2-2-|
A|-2-2-2-2-2-2-2-2-2-2-2-2-2-2-2-2-|-2-2-2-2-2-2-2-2-2-2-2-2-2-2-2-2-|
E|---------------------------------|-0-0-0-0-0-0-0-0-0-0-0-0-0-0-0-0-|

                                                                   x1
E|---------------------------------|---------------------------------|
B|---------------------------------|---------------------------------|
G|---------------------------------|---------------------------------|
D|-6-6-6-6-6-6-6-6-6-6-6-6-6-6-6-6-|-2-2-2-2-2-2-2-2-2-2-2-2-2-2-2-2-|
A|-6-6-6-6-6-6-6-6-6-6-6-6-6-6-6-6-|-2-2-2-2-2-2-2-2-2-2-2-2-2-2-2-2-|
E|-4-4-4-4-4-4-4-4-4-4-4-4-4-4-4-4-|-0-0-0-0-0-0-0-0-0-0-0-0-0-0-0-0-|

                                                                   x1
E|---------------------------------|---------------------------------|
B|---------------------------------|---------------------------------|
G|-4-4-4-4-4-4-4-4-4-4-4-4-4-4-4-4-|---------------------------------|
D|-4-4-4-4-4-4-4-4-4-4-4-4-4-4-4-4-|-2-2-2-2-2-2-2-2-2-2-2-2-2-2-2-2-|
A|-2-2-2-2-2-2-2-2-2-2-2-2-2-2-2-2-|-2-2-2-2-2-2-2-2-2-2-2-2-2-2-2-2-|
E|---------------------------------|-0-0-0-0-0-0-0-0-0-0-0-0-0-0-0-0-|

Pre-Verse:
                                    x1                                x7
E|-------------------------------------|---------------------------------|
B|-0-0-4p0-5p0-4p0-2p0-4p0-2p0-4p0-2h0-|-4p0-5p0-4p0-2p0-4p0-2p0-4p0-2p0-|
G|-------------------------------------|---------------------------------|
D|-------------------------------------|---------------------------------|
A|-------------------------------------|---------------------------------|
E|-------------------------------------|---------------------------------|

Verse:
                                      x4
E|--------------------------------------|
B|----------------------------7-7-5-4-5~|
G|--------------------------------------|
D|-6-6-6-6-6-6-6-6/8-8-8-8-2~-----------|
A|-6-6-6-6-6-6-6-6/8-8-8-8-2~-----------|
E|-4-4-4-4-4-4-4-4/6-6-6-6-0~-----------|

Chorus:
                                                                   x2
E|---------------------------------|---------------------------------|
B|---------------------------------|---------------------------------|
G|-4-4-4-4-4-4-4-4-4-4-4-4-4-4-4-4-|---------------------------------|
D|-4-4-4-4-4-4-4-4-4-4-4-4-4-4-4-4-|-2-2-2-2-2-2-2-2-2-2-2-2-2-2-2-2-|
A|-2-2-2-2-2-2-2-2-2-2-2-2-2-2-2-2-|-2-2-2-2-2-2-2-2-2-2-2-2-2-2-2-2-|
E|---------------------------------|-0-0-0-0-0-0-0-0-0-0-0-0-0-0-0-0-|

                                                                   x1
E|---------------------------------|---------------------------------|
B|---------------------------------|---------------------------------|
G|---------------------------------|---------------------------------|
D|-6-6-6-6-6-6-6-6-6-6-6-6-6-6-6-6-|-2-2-2-2-2-2-2-2-2-2-2-2-2-2-2-2-|
A|-6-6-6-6-6-6-6-6-6-6-6-6-6-6-6-6-|-2-2-2-2-2-2-2-2-2-2-2-2-2-2-2-2-|
E|-4-4-4-4-4-4-4-4-4-4-4-4-4-4-4-4-|-0-0-0-0-0-0-0-0-0-0-0-0-0-0-0-0-|

                                                                   x1
E|---------------------------------|---------------------------------|
B|---------------------------------|---------------------------------|
G|-4-4-4-4-4-4-4-4-4-4-4-4-4-4-4-4-|---------------------------------|
D|-4-4-4-4-4-4-4-4-4-4-4-4-4-4-4-4-|-2-2-2-2-2-2-2-2-2-2-2-2-2-2-2-2-|
A|-2-2-2-2-2-2-2-2-2-2-2-2-2-2-2-2-|-2-2-2-2-2-2-2-2-2-2-2-2-2-2-2-2-|
E|---------------------------------|-0-0-0-0-0-0-0-0-0-0-0-0-0-0-0-0-|

Bridge:
                                           x2       x1
E|----------|----------|----------|----------|--------|
B|----------|----------|----------|----------|--------|
G|-4/3--6/4-|-8/6--9/8-|-4/3--6/4-|-8/6--9/4-|-4~---<-|
D|-x----x---|-x----x---|-x----x---|-x----x---|-4~---<-|
A|-2/1--4/2-|-6/4--7/6-|-2/1--4/2-|-6/4--7/2-|-2~---<-|
E|----------|----------|----------|----------|--------|

Chorus:
                                                                   x2
E|---------------------------------|---------------------------------|
B|---------------------------------|---------------------------------|
G|-4-4-4-4-4-4-4-4-4-4-4-4-4-4-4-4-|---------------------------------|
D|-4-4-4-4-4-4-4-4-4-4-4-4-4-4-4-4-|-2-2-2-2-2-2-2-2-2-2-2-2-2-2-2-2-|
A|-2-2-2-2-2-2-2-2-2-2-2-2-2-2-2-2-|-2-2-2-2-2-2-2-2-2-2-2-2-2-2-2-2-|
E|---------------------------------|-0-0-0-0-0-0-0-0-0-0-0-0-0-0-0-0-|

                                                                   x1
E|---------------------------------|---------------------------------|
B|---------------------------------|---------------------------------|
G|---------------------------------|---------------------------------|
D|-6-6-6-6-6-6-6-6-6-6-6-6-6-6-6-6-|-2-2-2-2-2-2-2-2-2-2-2-2-2-2-2-2-|
A|-6-6-6-6-6-6-6-6-6-6-6-6-6-6-6-6-|-2-2-2-2-2-2-2-2-2-2-2-2-2-2-2-2-|
E|-4-4-4-4-4-4-4-4-4-4-4-4-4-4-4-4-|-0-0-0-0-0-0-0-0-0-0-0-0-0-0-0-0-|

                                                                   x1
E|---------------------------------|---------------------------------|
B|---------------------------------|---------------------------------|
G|-4-4-4-4-4-4-4-4-4-4-4-4-4-4-4-4-|---------------------------------|
D|-4-4-4-4-4-4-4-4-4-4-4-4-4-4-4-4-|-2-2-2-2-2-2-2-2-2-2-2-2-2-2-2-2-|
A|-2-2-2-2-2-2-2-2-2-2-2-2-2-2-2-2-|-2-2-2-2-2-2-2-2-2-2-2-2-2-2-2-2-|
E|---------------------------------|-0-0-0-0-0-0-0-0-0-0-0-0-0-0-0-0-|

Post-Chorus:
                                    x1                                x7
E|-------------------------------------|---------------------------------|
B|-0-0-4p0-5p0-4p0-2p0-4p0-2p0-4p0-2p0-|-4p0-5p0-4p0-2p0-4p0-2p0-4p0-2p0-|
G|-------------------------------------|---------------------------------|
D|-------------------------------------|---------------------------------|
A|-------------------------------------|---------------------------------|
E|-------------------------------------|---------------------------------|

Outro:
                                        x1
E|----------------------------------------|
B|----------------------------------------|
G|----------------------------------------|
D|-6-6-6-6-6-6-6-6/8-8-8-8-2~----->-(2~)--|
A|-6-6-6-6-6-6-6-6/8-8-8-8-2~----->-(2~)--|
E|-4-4-4-4-4-4-4-4/6-6-6-6-0~----->-(0~)--|


***********************************************
p  = pull-off
/  = slide
<  = Crescendo
>  = De-crescendo
x  = Mute note
~  = Let Ring
() = Ghost Note
***********************************************

About 98% correct... Enjoy
Tap to rate this tab
# A B C D E F G H I J K L M N O P Q R S T U V W X Y Z