Song name
# A B C D E F G H I J K L M N O P Q R S T U V W X Y Z

Blink 182 - Boxing Day tab

Intro
|----------------------|
|----------------------|
|----------------------|
|-5-5-5-5-5-5-5--------|
|-x-x-x-x-2/3-2--------|
|-3-2-5-0--------------|

Verse
|--------------|
|--------------|
|--------------|
|-5-5-5-5------|
|-x-x-2-3------|
|-3-2-0--------|

Pre-Chorus
|--------------|
|-8-8-8-8------|
|-7-7-7-7------|
|-5-x-x-x------|
|----5-7-5-----|
|--------------|

Chorus
|--------------|
|--------------|
|--------------|
|-5-5-5-5------|
|-5-3-2-3------|
|-3----0-------|

Bridge
|------------------------------|
|------------------------------|
|------------------------------|
|-5-5-5-9/10-10-10-9-----------|
|-x-x-2------------------------|
|-3-2-0------------------------|

Repeat all, then the last chorus

|--------------|
|-3-3-3-3------|
|-0-0-0-0------|
|-0-0-0-0------|
|-x-3-2-3------|
|-3----0-------|
Tap to rate this tab
# A B C D E F G H I J K L M N O P Q R S T U V W X Y Z