Song name
# A B C D E F G H I J K L M N O P Q R S T U V W X Y Z

Blink 182 - Dogs Eating Dogs chords

Highlighted       Show chord diagrams
Intro: Guitar 1: C – C/B – C – Dm – C – C/B – C - G
       Guitar 2: Am – C - G

Verse:
Am(hold)
I've got a feeling, I've got a feeling 
C            G
These broken nights and bitter ends
Am
We would always starve and devour 
C           G
Our closest friends my beautiful friends

Am
Paranoia my paranoia 
C            G 
Can't let it go, it never lets me go
Am
What am I feeling, why am I feeling 
C             G            F
Forecast into the freezing cold


Pre-Chorus:
            C                 G                 F
Dogs eating dogs, dogs eating dogs, dogs eating dogs
            C                 G                 C(hold)
Dogs eating dogs, dogs eating dogs, dogs eating dogs

Chorus:
C(hold)                       F(hold)
I'm the last and the first in a very sad set of eyes
Am                  G             F
To the bone, to the knees, to the factory line

C(hold)                  F(hold)
I am numb to the shot, I have a crippling fear of heights
Am              G                   F
'Cause the fall sounds a lot like a symphony of cries


Verse II:
Am
Your only hope is burning down the chapel 
C      G
All getting washed out with the tide
Am
We need to find some middle ground 
C  G
It's always sex or suicide

Bridge:
e|----------------------------------------------------------------------|
B|----------------------------------------------------------------------|
G|-------------------------------4--------4------4------4-------4------4|
D|-----------------------------4---4----4---4--4------4---4---4---4--4--|
A|2---3-----3--2--3----------2----------------------2-------------------|
E|------------------------------------3---------------------3-----------|

e|---------------------|
B|---------------------|
G|----4--------4-----4-|
D|--4---4----4---4--4--|
A|2--------------------|
E|---------3-----------|


Sr. Delmαs ~
Tap to rate this tab
# A B C D E F G H I J K L M N O P Q R S T U V W X Y Z