Song name
# A B C D E F G H I J K L M N O P Q R S T U V W X Y Z

Blink 182 - Dogs Eating Dogs tab

Intro
|--------------------------------------|
|--------------------------------------|
|--555-444-555-777-55-44-555555--------|
|--222-222-222-777-22-22-555555-555555-|
|--000-000-000-000-00-00-333333-555555-|
|-------------------------------333333-|
                                          x2
|--------------------------------------|
|--------------------------------------|
|--555-444-555-777-55-44-555555--------|
|--222-222-222-777-22-22-555555-222222-|
|--000-000-000-000-00-00-333333-222222-|
|-------------------------------000000-|

Verse 1
|-----------------------|
|-----------------------|
|-----55555555----------|
|--7~-55555555-55555555-|
|--7~-33333333-55555555-|
|--5~----------33333333-|

|-------------------------------------|
|-------------------------------------|
|-------------------55555555----------|
|--7777777777777777-55555555-55555555-| x3
|--7777777777777777-33333333-55555555-|
|--5555555555555555----------33333333-|

Pre-Chorus
|-------------------------------------|
|-------------------------------------|
|-------------------55555555----------|
|--3333333333333333-55555555-55555555-| x2
|--3333333333333333-33333333-55555555-|
|--1111111111111111----------33333333-|
   **************** ******** ********

Chorus
|-------------------------------------------|
|-------------------------------------------|
|--5~---------------------------------------|
|--5~-3~-77777777-55555555-3333333333333333-| x2
|--3~-3~-77777777-55555555-3333333333333333-|
|-----1~-55555555-33333333-1111111111111111-|

Repeat Intro
|--------------------------------------|
|--------------------------------------|
|--555-444-555-777-55-44-555555--------|
|--222-222-222-777-22-22-555555-555555-|
|--000-000-000-000-00-00-333333-555555-|
|-------------------------------333333-|
                                         
|--------------------------------------|
|--------------------------------------|
|--555-444-555-777-55-44-555555--------|
|--222-222-222-777-22-22-555555-222222-|
|--000-000-000-000-00-00-333333-222222-|
|-------------------------------000000-|

Verse 2
|-----------|
|-----------|
|-----5~----|
|--7~-5~-5~-| x2
|--7~-3~-5~-|
|--5~----3~-|

Pre-Chorus
|-------------------------------------|
|-------------------------------------|
|-------------------55555555----------|
|--3333333333333333-55555555-55555555-| x2
|--3333333333333333-33333333-55555555-|
|--1111111111111111----------33333333-|
   **************** ******** ********

Chorus
|-------------------------------------------|
|-------------------------------------------|
|--5~---------------------------------------|
|--5~-3~-77777777-55555555-3333333333333333-| x2
|--3~-3~-77777777-55555555-3333333333333333-|
|-----1~-55555555-33333333-1111111111111111-|

Guitar 1
|-----------|
|-----------|
|-----------|
|--10-9-10~-|
|-----------|
|-----------|

|--------------|  
|--------------|  
|--------------|  
|--10-9/5-3-2~-|  
|--------------|
|--------------|

Guitar 2
|---------------------|
|---------------------|
|---------------------|
|--55555555-5555-5555-|
|--33333333-3333-3333-|
|--11111111-5555-3333-|

Pre-Chorus
|-------------------------------------|
|-------------------------------------|
|-------------------55555555----------|
|--3333333333333333-55555555-55555555-| x2
|--3333333333333333-33333333-55555555-|
|--1111111111111111----------33333333-|
   **************** ******** ********

Chorus
|-------------------------------------------|
|-------------------------------------------|
|--5~---------------------------------------|
|--5~-3~-77777777-55555555-3333333333333333-| x2
|--3~-3~-77777777-55555555-3333333333333333-|
|-----1~-55555555-33333333-1111111111111111-|

Intro
|--------------------------------------|
|--------------------------------------|
|--555-444-555-777-55-44-555555--------|
|--222-222-222-777-22-22-555555-555555-|
|--000-000-000-000-00-00-333333-555555-|
|-------------------------------333333-|
                                         
|----------------------------------|
|----------------------------------|
|--555-444-555-777-55-44-555555----|
|--222-222-222-777-22-22-555555-2~-|
|--000-000-000-000-00-00-333333-2~-|
|-------------------------------0~-|
Tap to rate this tab
# A B C D E F G H I J K L M N O P Q R S T U V W X Y Z