Song name
# A B C D E F G H I J K L M N O P Q R S T U V W X Y Z

Blink 182 - When I Was Young tab

intro

E |--------------------------------------------------|
B |--------------------------------------------------|
G |---------11-----------------------8---------------|
D |--8--9------9-8-9------8-9--------11--8-9---------|
A |--------------------------------------------------|
E |--------------------------------------------------|

Verse

E |-----------------------------------------|
B |--------------------------------7--------|
G |--8\4--4----8\4---4----4/6---------------|
D |--x\x--x----x\x---x----x/x---------------|
A |--6\2--2----6\2---2----2/4---------------|
E |-----------------------------------------|

Chorus

E |----------------------------------------|
B |----------------------------------------|
G |----------------------------------------|
D |--4--4---6-----6---8----2---------------|
A |--2--4---4-----6---6----2---------------|
E |------2---------4---------0-------------|

Bridge

E |-----------------------------------------|
B |----------4------------------------------|
G |--8--9---4------6------------------------|
D |--9--9---x------x------------------------|
A |--6--7---2------4------------------------|
E |-----------------------------------------|
Tap to rate this tab
 
# A B C D E F G H I J K L M N O P Q R S T U V W X Y Z