Song name
# A B C D E F G H I J K L M N O P Q R S T U V W X Y Z

Blink 182 - Pretty Little Girl tab

I've not seen a good tab for this song yet and it is my favourite on the EP. 
Here is my take and i'm pretty sure with the right sound effects it will sound the same!

* = Palm Mute
~ = Let it 'ring'


Intro/Verse (Med Delay)

e|------------------------------------------------|
B|------------------------------------------------|
G|------------------------------------------------|
D|-7-7-7-7-7-9-7-11-7-6/7----7-7-7-7-7-9-9-6/7----|
A|------------------------------------------------|
E|------------------------------------------------|
   * * * * * * * * * * */*   * * * * * * * */* 

Pre - Chorus

e|----------------------------------------------------------|
B|----------------------------------------------------------|
G|----------------------------------------------------------|
D|--7-7-7-7-7-7-7-7-7-7-7-7-7---7-7-7-7-7-7-7-7-7-7-7-7-7---|
A|--4-4-4-4-4-4-4-4-4-4-4-4-4---5-5-5-5-5-5-5-5-5-5-5-5-5---|
E|------------------------------5-5-5-5-5-5-5-5-5-5-5-5-5---|
      *   * * * * * * * * * *     *   * * * * * * * * * *
   2 x open - 12 Palm muted (fast downstrum) 

e|----------------------------------------------------------|
B|----------------------------------------------------------|
G|------------------------------9-9-9-9-9-9-9-9-9-9-9-9-9---|
D|--7-7-7-7-7-7-7-7-7-7-7-7-7---9-9-9-9-9-9-9-9-9-9-9-9-9---|
A|--7-7-7-7-7-7-7-7-7-7-7-7-7---7-7-7-7-7-7-7-7-7-7-7-7-7---|
E|--5-5-5-5-5-5-5-5-5-5-5-5-5-------------------------------|
      *   * * * * * * * * * *     *   * * * * * * * * * *
   2 x open - 12 Palm muted (fast downstrum) 

e|----------------------------------------------------------|
B|----------------------------------------------------------|
G|------------------------------7-7-7-7-7-7-7-7-7-7-7-7-7---|
D|--7-7-7-7-7-7-7-7-7-7-7-7-7---7-7-7-7-7-7-7-7-7-7-7-7-7---|
A|--4-4-4-4-4-4-4-4-4-4-4-4-4---5-5-5-5-5-5-5-5-5-5-5-5-5---|
E|----------------------------------------------------------|
      *   * * * * * * * * * *     *   * * * * * * * * * *
   2 x open - 12 Palm muted (fast downstrum) 

Chorus
           (Add some distortion for this)

e|----------------------------------------------------------|
B|----------------------------------------------------------|
G|------------------------------7-7-7-7-7-7-7-7-7-7-7-7-7---|
D|--7-7-7-7-7-7-7-7-7-7-7-7-7---7-7-7-7-7-7-7-7-7-7-7-7-7---|
A|--7-7-7-7-7-7-7-7-7-7-7-7-7---5-5-5-5-5-5-5-5-5-5-5-5-5---|
E|--5-5-5-5-5-5-5-5-5-5-5-5-5-------------------------------|


e|------------------------------------------------|
B|------------------------------------------------|
G|-9-9-9-9-9-9-9-9-9-9-9-9-9-9--------------------|  
D|-9-9-9-9-9-9-9-9-9-9-9-9-9-9--------------------|  
A|-7-7-7-7-7-7-7-7-7-7-7-7-7-7--------------------|
E|------------------------------------------------|

Do the above X 2, then:


e|----------------------------------------------------|
B|----------------------------------------------------|
G|-11-11-11-11-11-11-11-11-11-/-7~--7-7-7-9-9-9-------|
D|-11-11-11-11-11-11-11-11-11-/-7~--7-7-7-9-9-9-7~----|
A|-9-9-9-9-9-9-9-9-9-9-9-9-9--/-5~--5-5-5-7-7-7-7~----|
E|----------------------------------------------5~----|

That's all the main parts except at the end of the rap there's a bit which goes as follows:

e|------------------------------------------------|
B|------------------------------------------------|
G|-14-14-14-14-14-14-14-14-14-14-14-14------------|
D|-x--x--x--x--x--x--x--x--x--x--x--x-------------|
A|-12-12-12-12-12-12-12-12-12-12-12-12------------|
E|------------------------------------------------|



There you have it! Tom does use some delay and distortion in this song with some 
of his sound effects.

I hope you enjoy!
Tap to rate this tab
# A B C D E F G H I J K L M N O P Q R S T U V W X Y Z