Song name
# A B C D E F G H I J K L M N O P Q R S T U V W X Y Z

Blink 182 - Mutt tab

-------------------------------------------------------------------------------
Song: Mutt
Artist: Blink 182
Album: Enema of the State

I have not found a great tab for this song on here so I decided to make one.
            
-------------------------------------------------------------------------------
Tabbed by: Evan (Hardcoreman94)

Tuning:Standard


Intro
Repeat X2
e|---------------------------------------------------------------------------|
B|---------------------------------------------------------------------------|
G|-----6-------6-------6-------6-------6-------6-------6-------6-------------|
D|--7-------7-------7-------7-------7-------7-------7-------7----------------|
A|-------7-------7-------7-------7-------7-------7-------7-------7-----------|
E|---------------------------------------------------------------------------|
   Let notes ring out

Verse:
Repeat X2
e|---------------------------------------------------------------------------|
B|---------------------------------------------------------------------------|
G|--------2-------2------2h4-----2h4------6------6------2h4------2h4---------|
D|-------------------------------------------------0--0-----0--0-------------|
A|--0--0----0--0----0--0-----0--0----0--4---4--4-----------------------------|
E|---------------------------------------------------------------------------|
PM  *  *    *  *    *  *     *  *    *  *   *  *   *  *     *  *

Pre chorus
Repeat this part twice
e|---------------------------------------------------------------------------|
B|---------------------------------------------------------------------------|
G|--2-2-2-2--2-2-2-2---------------------------------------------------------|
D|--2-2-2-2--2-2-2-2--4-4-4-4--2-2-2-2---------------------------------------|
A|--0-0-0-0--0-0-0-0--4-4-4-4--2-2-2-2---------------------------------------|
E|--------------------2-2-2-2--0-0-0-0---------------------------------------|

then play this once
e|---------------------------------------------------------------------------|
B|---------------------------------------------------------------------------|
G|--7-7-7-7-7-7-7-7-7-7-7-7--9-9-9-9-----------------------------------------|
D|--7-7-7-7-7-7-7-7-7-7-7-7--9-9-9-9-----------------------------------------|
A|--5-5-5-5-5-5-5-5-5-5-5-5--7-7-7-7-----------------------------------------|
E|---------------------------------------------------------------------------|


Chorus
Repeat X6
e|---------------------------------------------------------------------------|
B|---------------------------------------------------------------------------|
G|---------------------------------------------------------------------------|
D|--7--7-7-7-7-7--7--7-7-7-7-7--7--7-7-7-7-7--7-7--7-7-----------------------|
A|--x--x-x-x-x-x--x--x-x-x-x-x--x--x-x-x-x-x--5-5--4-4-----------------------|
E|--5--5-5-5-5-5--5--5-5-5-5-5--7--7-7-7-7-7---------------------------------|

Play intro part again
Repeat X2
e|---------------------------------------------------------------------------|
B|---------------------------------------------------------------------------|
G|-----6-------6-------6-------6-------6-------6-------6-------6-------------|
D|--7-------7-------7-------7-------7-------7-------7-------7----------------|
A|-------7-------7-------7-------7-------7-------7-------7-------7-----------|
E|---------------------------------------------------------------------------|

Play verse again
Repeat X2
e|---------------------------------------------------------------------------|
B|---------------------------------------------------------------------------|
G|--------2-------2------2h4-----2h4------6------6------2h4------2h4---------|
D|-------------------------------------------------0--0-----0--0-------------|
A|--0--0----0--0----0--0-----0--0----0--4---4--4-----------------------------|
E|---------------------------------------------------------------------------|
PM  *  *    *  *    *  *     *  *    *  *   *  *   *  *     *  *

Play Pre Chorus again
Repeat this part X2
e|---------------------------------------------------------------------------|
B|---------------------------------------------------------------------------|
G|--2-2-2-2--2-2-2-2---------------------------------------------------------|
D|--2-2-2-2--2-2-2-2--4-4-4-4--2-2-2-2---------------------------------------|
A|--0-0-0-0--0-0-0-0--4-4-4-4--2-2-2-2---------------------------------------|
E|--------------------2-2-2-2--0-0-0-0---------------------------------------|

then play this X1
e|---------------------------------------------------------------------------|
B|---------------------------------------------------------------------------|
G|--7-7-7-7-7-7-7-7-7-7-7-7--9-9-9-9-----------------------------------------|
D|--7-7-7-7-7-7-7-7-7-7-7-7--9-9-9-9-----------------------------------------|
A|--5-5-5-5-5-5-5-5-5-5-5-5--7-7-7-7-----------------------------------------|
E|---------------------------------------------------------------------------|

Chorus
Repeat X6
e|---------------------------------------------------------------------------|
B|---------------------------------------------------------------------------|
G|---------------------------------------------------------------------------|
D|--7--7-7-7-7-7--7--7-7-7-7-7--7--7-7-7-7-7--7-7--7-7-----------------------|
A|--x--x-x-x-x-x--x--x-x-x-x-x--x--x-x-x-x-x--5-5--4-4-----------------------|
E|--5--5-5-5-5-5--5--5-5-5-5-5--7--7-7-7-7-7---------------------------------|

Palm muted chorus variation thing 
Repeat X2
e|---------------------------------------------------------------------------|
B|---------------------------------------------------------------------------|
G|---------------------------------------------------------------------------|
D|------------------7-7--6-6-------------------------------------------------|
A|--7-7-----9-9-----5-5--4-4-------------------------------------------------|
E|--5-5-----7-7--------------------------------------------------------------|
PM  * *     * *     * *  * *

Play the intro part again
X1
e|---------------------------------------------------------------------------|
B|---------------------------------------------------------------------------|
G|-----6-------6-------6-------6-------6-------6-------6-------6-------------|
D|--7-------7-------7-------7-------7-------7-------7-------7----------------|
A|-------7-------7-------7-------7-------7-------7-------7-------7-----------|
E|---------------------------------------------------------------------------|

Chorus
Repeat X4
e|---------------------------------------------------------------------------|
B|---------------------------------------------------------------------------|
G|---------------------------------------------------------------------------|
D|--7--7-7-7-7-7--7--7-7-7-7-7--7--7-7-7-7-7--7-7--7-7-----------------------|
A|--x--x-x-x-x-x--x--x-x-x-x-x--x--x-x-x-x-x--5-5--4-4-----------------------|
E|--5--5-5-5-5-5--5--5-5-5-5-5--7--7-7-7-7-7---------------------------------|

Outro
let power chords ring
e|---------------------------------------------------------------------------|
B|---------------------------------------------------------------------------|
G|---------------------------------------------------------------------------|
D|--7-7------9-9--------7-7--7-7--7-7------9-9--------7-7--7-7--5------------|
A|--7-7------9-9--------5-5--4-4--7-7------9-9--------5-5--4-4--5------------|
E|--5-5------7-7------------------5-5------7-7------------------7------------|


************************************
| *   Palm Mute
| /   slide up
| \   slide down
| h   hammer-on
| p   pull-off
| ~   vibrato
| +   harmonic
| x   Mute note
| b   Bend
| pb  Pre-bend
| br  Bend release
| pbr Pre-bend release
| brb Bend release bend

************************************
Tap to rate this tab
 
# A B C D E F G H I J K L M N O P Q R S T U V W X Y Z