Song name
# A B C D E F G H I J K L M N O P Q R S T U V W X Y Z

Blink 182 - Dysentery Gary tab

-------------------------------------------------------------------------------
                             Dysentery Gary - blink-182
                                    Enema of the State
-------------------------------------------------------------------------------
Tabbed by: Evan (Hardcoreman94)
Tuning: Standard

Intro
e|---------------------------------------------------------------------------|
B|---------------------------------------------------------------------------|
G|---------------------------------------------------------------------------|
D|--4-4-4-0-0-0-5-5-5-4-4-4-0-0-0-0-------4-4-4------------------------------| X2
A|----------------------------------------------------4-4-4-4-4-4h5----------|
E|-----------------------------------3-3-3------5-5-5------------------------|

Verse (listen to the song for the rhythm)
e|---------------------------------------------------------------------------|
B|---------------------------------------------------------------------------|
G|--7------------7-------------------------2---------2---------2-------------|
D|--x---------4--x---------4---------------2---------2---------2-------------|  X2
A|--5-0-0-0-0-5--5-0-0-0-0-5--5-0-0-0-0-5--0---------0---------0-------------|
E|----------------------------3---------3----3-3-3-3-- 3-3-3-3---3-----------|
      * * * *      * * * *      * * * *      * * * *   * * * *

Pre Chorus
e|---------------------------------------------------------------------------|
B|--3-3-3-3-3-3-3-3--3-3-3-3--2-2-2-2----------------------------------------|
G|--2-2-2-2-2-2-2-2--0-0-0-0--2-2-2-2----------------------------------------|
D|--0-0-0-0-0-0-0-0--0-0-0-0--2-2-2-2----------------------------------------|
A|---------------------------------------------------------------------------|
E|---------------------------------------------------------------------------|

Chorus
e|-------------------------------------------15-14---------------------------|
B|------------------------------------------------15-------------------------|
G|--7-7-7-7-------------------------------------------12-12-12---------------|
D|--7-7-7-7-(X8)--5-5-5-5------7-7-7-7---------------------------------------|  
A|--5-5-5-5-------5-5-5-5-(X4)-7-7-7-7-(X4)----------------------------------|
E|----------------3-3-3-3------5-5-5-5---------------------------------------|

Play intro part again
e|---------------------------------------------------------------------------|
B|---------------------------------------------------------------------------|
G|---------------------------------------------------------------------------|
D|--4-4-4-0-0-0-5-5-5-4-4-4-0-0-0-0-------4-4-4------------------------------| X2
A|----------------------------------------------------4-4-4-4-4-4h5----------|
E|-----------------------------------3-3-3------5-5-5------------------------|

Verse again
e|---------------------------------------------------------------------------|
B|---------------------------------------------------------------------------|
G|--7------------7-------------------------2---------2---------2-------------|
D|--x---------4--x---------4---------------2---------2---------2-------------|  X2
A|--5-0-0-0-0-5--5-0-0-0-0-5--5-0-0-0-0-5--0---------0---------0-------------|
E|----------------------------3---------3----3-3-3-3-- 3-3-3-3---3-----------|
      * * * *      * * * *      * * * *      * * * *   * * * *

Pre Chorus 
e|---------------------------------------------------------------------------|
B|--3-3-3-3-3-3-3-3--3-3-3-3--2-2-2-2----------------------------------------|
G|--2-2-2-2-2-2-2-2--0-0-0-0--2-2-2-2----------------------------------------|
D|--0-0-0-0-0-0-0-0--0-0-0-0--2-2-2-2----------------------------------------|
A|---------------------------------------------------------------------------|
E|---------------------------------------------------------------------------|

Chorus
e|-------------------------------------------15-14---------------------------|
B|------------------------------------------------15-------------------------|
G|--7-7-7-7-------------------------------------------12-12-12---------------|
D|--7-7-7-7-(X8)--5-5-5-5------7-7-7-7---------------------------------------|  
A|--5-5-5-5-------5-5-5-5-(X4)-7-7-7-7-(X4)----------------------------------|
E|----------------3-3-3-3------5-5-5-5---------------------------------------|

Interlude
e|---------------------------------------------------------------------------|
B|---------------------------------------------------------------------------|
G|---------------------------------------------------------------------------|
D|--4-5-4---2---------4-5-4---2---0----4-5-4---2--------4-5-4----------------|
A|--5-----------------5---------0------5----------------5------5-------------|
E|------------3-5--------------------------------3-5-----------3-------------|

Final Chorus - Rhythm Guitar
Just play these chords to the song
e|---------------------------------------------------------------------------|
B|---------------------------------------------------------------------------|
G|----------------------------7-7-7-7-7-7--4-4-4-4-4-4-----------------------|
D|--5-5-5-5-5-5--7-7-7-7-7-7--7-7-7-7-7-7--4-4-4-4-4-4--5-5-5-5--7-7-7-7-----|
A|--5-5-5-5-5-5--7-7-7-7-7-7--5-5-5-5-5-5--2-2-2-2-2-2--5-5-5-5--7-7-7-7-----|
E|--3-3-3-3-3-3--5-5-5-5-5-5----------------------------3-3-3-3--5-5-5-5-----|

Final Chorus lead guitar part (this is the same as the other chorus's)
Just repeat it as many times as needed
e|--15-14--------------------------------------------------------------------|
B|-------15------------------------------------------------------------------|
G|----------12-12-12---------------------------------------------------------|
D|---------------------------------------------------------------------------|
A|---------------------------------------------------------------------------|
E|---------------------------------------------------------------------------|

End Riff
e|---------------------------------------------------------------------------|
B|---------------------------------------------------------------------------|
G|---------------------------------------------------------------------------|
D|--4-4-4-0-0-0-5-5-5-4-4-4--------------------------------------------------|
A|------------------------------------5--------------------------------------|
E|----------------------------3/5-5-5----------------------------------------|


************************************
| *   Palm Mute
| /   slide up
| \   slide down
| h   hammer-on
| p   pull-off
| ~   vibrato
| +   harmonic
| x   Mute note
| b   Bend
| pb  Pre-bend
| br  Bend release
| pbr Pre-bend release
| brb Bend release bend

************************************
Tap to rate this tab
 
# A B C D E F G H I J K L M N O P Q R S T U V W X Y Z