Song name
# A B C D E F G H I J K L M N O P Q R S T U V W X Y Z

Blink 182 - After Midnight tab

This was tabbed out by mustanggtm0413
If you would like to hear how this tabs played out go to
http://www.youtube.com/watch?v=erXQ6t-jKX4


e---------------------------------|
B---------------------------------|
G-----2-2---2-2-----2-2---2-2-----|  Play 1 time
D-----2-2---2-2-----2-2---2-2-----|
A-----0-0---0-0-----0-0---0-0-----|
E---------------------------------|

e--------------------------|
B--------------------------|
G-----9-9-9-99-6-7-77------|  Repeat 11 times
D-----7-7-7-77-7-7-77------|
A--------------------------|
E--------------------------|

 Play this part, 5 times first -------- Then play  this part 1 time after
e-------------------------------     |    e------------------------------|
B-----10----10----9----9--------     |    B-----10----10----10----10-----|
G--------99----99---99---99-----     |    G--------99----99----99----99--|
D-------------------------------     |    D------------------------------|
A-------------------------------     |    A------------------------------|
E-------------------------------     |    E------------------------------|

e---------------------------------------------------|
B---------------------------------------------------|
G---------------------------------------------------|  Play 2 times
D-----7-xx-7-x-7---7/99/11--7-xx-7-x-7---7/99\7-----|
A-----x-xx-x-x-x---x-xx-x---x-xx-x-x-x---x-xx-x-----|
E-----5-xx-5-x-5---5/77/9---5-xx-5-x-5---5/99\5-----|

e---------------------------------|
B---------------------------------|
G-----2-2---2-2-----2-2---2-2-----|  Play 1 time
D-----2-2---2-2-----2-2---2-2-----|
A-----0-0---0-0-----0-0---0-0-----|
E---------------------------------|


e--------------------------|
B--------------------------|
G-----9-9-9-99-6-7-77------|  Play 8 times
D-----7-7-7-77-7-7-77------|
A--------------------------|
E--------------------------|

 Play this part, 5 times first ---------- Then play  this part 1 time after
e-------------------------------     |    e------------------------------|
B-----10----10----9----9--------     |    B-----10----10----10----10-----|
G--------99----99---99---99-----     |    G--------99----99----99----99--|
D-------------------------------     |    D------------------------------|
A-------------------------------     |    A------------------------------|
E-------------------------------     |    E------------------------------|

e---------------------------------------------------|
B---------------------------------------------------|
G---------------------------------------------------|  Play 4 times
D-----7-xx-7-x-7---7/99/11--7-xx-7-x-7---7/99\7-----|
A-----x-xx-x-x-x---x-xx-x---x-xx-x-x-x---x-xx-x-----|
E-----5-xx-5-x-5---5/77/9---5-xx-5-x-5---5/99\5-----|

e-------------------|
B-------------------|
G-----2-2---2-2-----|  Play 1 time
D-----2-2---2-2-----|
A-----0-0---0-0-----|
E-------------------|

e------------------------------------------------------------------------|
B------------------------------------------------------------------------|
G------------------------------------------------------------------------|  Play 1 time
D-----7--9-1111--111111/9-7--7--9-1111--111111/9-7-7-Ring-----7-Ring-----|
A-----x--x-x-x---x-x-x--x-x--x--x-x-x---x-x-x--x-x-x---------------------|
E-----5--7-9-9---9-9-9-/7-5--5--7-9-9---9-9-9-/7-5-5-Ring----------------|

e-----------------------------------------------------------------------|
B-----------------------------------------------------------------------|
G-------9--9--9--9--9------------------9--9--9--9--9--------------------|  Play 1 time
D-----77-77-77-77-77---7--7--7--7--7-77-77-77-77-77---7--7--7--7--7-----|
A--------------------9--9--9--9--9------------------9--9--9--9--9-------|
E-----------------------------------------------------------------------|


e---------------------------------------------------|
B---------------------------------------------------|
G---------------------------------------------------|  Play 4 times
D-----7-xx-7-x-7---7/99/11--7-xx-7-x-7---7/99\7-----|
A-----x-xx-x-x-x---x-xx-x---x-xx-x-x-x---x-xx-x-----|
E-----5-xx-5-x-5---5/77/9---5-xx-5-x-5---5/99\5-----|
Tap to rate this tab
# A B C D E F G H I J K L M N O P Q R S T U V W X Y Z